  0
SECTION
  2
HEADER
  9
$ACADVER
  1
AC1027
  9
$ACADMAINTVER
 70
   105
  9
$DWGCODEPAGE
  3
ANSI_1252
  9
$REQUIREDVERSIONS
160
                 0
  9
$INSBASE
 10
0.0
 20
0.0
 30
0.0
  9
$EXTMIN
 10
0.0
 20
0.0
 30
0.0
  9
$EXTMAX
 10
594.0
 20
420.0
 30
0.0
  9
$LIMMIN
 10
0.0
 20
0.0
  9
$LIMMAX
 10
594.0
 20
420.0
  9
$ORTHOMODE
 70
     0
  9
$REGENMODE
 70
     1
  9
$FILLMODE
 70
     1
  9
$QTEXTMODE
 70
     0
  9
$MIRRTEXT
 70
     1
  9
$LTSCALE
 40
1.0
  9
$ATTMODE
 70
     1
  9
$TEXTSIZE
 40
3.5
  9
$TRACEWID
 40
1.0
  9
$TEXTSTYLE
  7
Standard
  9
$CLAYER
  8
0
  9
$CELTYPE
  6
ByLayer
  9
$CECOLOR
 62
   256
  9
$CELTSCALE
 40
1.0
  9
$DISPSILH
 70
     0
  9
$DIMSCALE
 40
1.0
  9
$DIMASZ
 40
3.302
  9
$DIMEXO
 40
1.0
  9
$DIMDLI
 40
3.75
  9
$DIMRND
 40
0.0
  9
$DIMDLE
 40
0.0
  9
$DIMEXE
 40
1.0
  9
$DIMTP
 40
0.0
  9
$DIMTM
 40
0.0
  9
$DIMTXT
 40
3.5
  9
$DIMCEN
 40
2.5
  9
$DIMTSZ
 40
0.0
  9
$DIMTOL
 70
     0
  9
$DIMLIM
 70
     0
  9
$DIMTIH
 70
     1
  9
$DIMTOH
 70
     1
  9
$DIMSE1
 70
     0
  9
$DIMSE2
 70
     0
  9
$DIMTAD
 70
     1
  9
$DIMZIN
 70
     0
  9
$DIMBLK
  1

  9
$DIMASO
 70
     1
  9
$DIMSHO
 70
     1
  9
$DIMPOST
  1

  9
$DIMAPOST
  1

  9
$DIMALT
 70
     0
  9
$DIMALTD
 70
     3
  9
$DIMALTF
 40
0.0393700787
  9
$DIMLFAC
 40
10.0
  9
$DIMTOFL
 70
     1
  9
$DIMTVP
 40
0.0
  9
$DIMTIX
 70
     0
  9
$DIMSOXD
 70
     0
  9
$DIMSAH
 70
     0
  9
$DIMBLK1
  1

  9
$DIMBLK2
  1

  9
$DIMSTYLE
  2
ISO-25
  9
$DIMCLRD
 70
     0
  9
$DIMCLRE
 70
     0
  9
$DIMCLRT
 70
     0
  9
$DIMTFAC
 40
1.0
  9
$DIMGAP
 40
1.524
  9
$DIMJUST
 70
     0
  9
$DIMSD1
 70
     0
  9
$DIMSD2
 70
     0
  9
$DIMTOLJ
 70
     0
  9
$DIMTZIN
 70
     0
  9
$DIMALTZ
 70
     0
  9
$DIMALTTZ
 70
     0
  9
$DIMUPT
 70
     0
  9
$DIMDEC
 70
     2
  9
$DIMTDEC
 70
     2
  9
$DIMALTU
 70
     2
  9
$DIMALTTD
 70
     3
  9
$DIMTXSTY
  7
Standard
  9
$DIMAUNIT
 70
     0
  9
$DIMADEC
 70
     2
  9
$DIMALTRND
 40
0.0
  9
$DIMAZIN
 70
     0
  9
$DIMDSEP
 70
    44
  9
$DIMATFIT
 70
     3
  9
$DIMFRAC
 70
     0
  9
$DIMLDRBLK
  1

  9
$DIMLUNIT
 70
     2
  9
$DIMLWD
 70
    -2
  9
$DIMLWE
 70
    -2
  9
$DIMTMOVE
 70
     0
  9
$DIMFXL
 40
1.0
  9
$DIMFXLON
 70
     0
  9
$DIMJOGANG
 40
0.7853981634
  9
$DIMTFILL
 70
     0
  9
$DIMTFILLCLR
 70
     0
  9
$DIMARCSYM
 70
     0
  9
$DIMLTYPE
  6

  9
$DIMLTEX1
  6

  9
$DIMLTEX2
  6

  9
$DIMTXTDIRECTION
 70
     0
  9
$LUNITS
 70
     2
  9
$LUPREC
 70
     2
  9
$SKETCHINC
 40
1.0
  9
$FILLETRAD
 40
10.0
  9
$AUNITS
 70
     0
  9
$AUPREC
 70
     2
  9
$MENU
  1
.
  9
$ELEVATION
 40
0.0
  9
$PELEVATION
 40
0.0
  9
$THICKNESS
 40
0.0
  9
$LIMCHECK
 70
     0
  9
$CHAMFERA
 40
0.0
  9
$CHAMFERB
 40
0.0
  9
$CHAMFERC
 40
0.0
  9
$CHAMFERD
 40
0.0
  9
$SKPOLY
 70
     0
  9
$TDCREATE
 40
2459193.577579201
  9
$TDUCREATE
 40
2459193.535912535
  9
$TDUPDATE
 40
2459193.577583171
  9
$TDUUPDATE
 40
2459193.535916504
  9
$TDINDWG
 40
0.0000000116
  9
$TDUSRTIMER
 40
0.0000000116
  9
$USRTIMER
 70
     1
  9
$ANGBASE
 50
0.0
  9
$ANGDIR
 70
     0
  9
$PDMODE
 70
     0
  9
$PDSIZE
 40
-1.0
  9
$PLINEWID
 40
0.0
  9
$SPLFRAME
 70
     0
  9
$SPLINETYPE
 70
     6
  9
$SPLINESEGS
 70
     8
  9
$HANDSEED
  5
3DD
  9
$SURFTAB1
 70
     6
  9
$SURFTAB2
 70
     6
  9
$SURFTYPE
 70
     6
  9
$SURFU
 70
     6
  9
$SURFV
 70
     6
  9
$UCSBASE
  2

  9
$UCSNAME
  2

  9
$UCSORG
 10
0.0
 20
0.0
 30
0.0
  9
$UCSXDIR
 10
1.0
 20
0.0
 30
0.0
  9
$UCSYDIR
 10
0.0
 20
1.0
 30
0.0
  9
$UCSORTHOREF
  2

  9
$UCSORTHOVIEW
 70
     0
  9
$UCSORGTOP
 10
0.0
 20
0.0
 30
0.0
  9
$UCSORGBOTTOM
 10
0.0
 20
0.0
 30
0.0
  9
$UCSORGLEFT
 10
0.0
 20
0.0
 30
0.0
  9
$UCSORGRIGHT
 10
0.0
 20
0.0
 30
0.0
  9
$UCSORGFRONT
 10
0.0
 20
0.0
 30
0.0
  9
$UCSORGBACK
 10
0.0
 20
0.0
 30
0.0
  9
$PUCSBASE
  2

  9
$PUCSNAME
  2

  9
$PUCSORG
 10
0.0
 20
0.0
 30
0.0
  9
$PUCSXDIR
 10
1.0
 20
0.0
 30
0.0
  9
$PUCSYDIR
 10
0.0
 20
1.0
 30
0.0
  9
$PUCSORTHOREF
  2

  9
$PUCSORTHOVIEW
 70
     0
  9
$PUCSORGTOP
 10
0.0
 20
0.0
 30
0.0
  9
$PUCSORGBOTTOM
 10
0.0
 20
0.0
 30
0.0
  9
$PUCSORGLEFT
 10
0.0
 20
0.0
 30
0.0
  9
$PUCSORGRIGHT
 10
0.0
 20
0.0
 30
0.0
  9
$PUCSORGFRONT
 10
0.0
 20
0.0
 30
0.0
  9
$PUCSORGBACK
 10
0.0
 20
0.0
 30
0.0
  9
$USERI1
 70
     0
  9
$USERI2
 70
     0
  9
$USERI3
 70
     0
  9
$USERI4
 70
     0
  9
$USERI5
 70
     0
  9
$USERR1
 40
0.0
  9
$USERR2
 40
0.0
  9
$USERR3
 40
0.0
  9
$USERR4
 40
0.0
  9
$USERR5
 40
0.0
  9
$WORLDVIEW
 70
     1
  9
$SHADEDGE
 70
     3
  9
$SHADEDIF
 70
    70
  9
$TILEMODE
 70
     1
  9
$MAXACTVP
 70
    64
  9
$PINSBASE
 10
0.0
 20
0.0
 30
0.0
  9
$PLIMCHECK
 70
     0
  9
$PEXTMIN
 10
1.0000000000E+20
 20
1.0000000000E+20
 30
1.0000000000E+20
  9
$PEXTMAX
 10
-1.0000000000E+20
 20
-1.0000000000E+20
 30
-1.0000000000E+20
  9
$PLIMMIN
 10
0.0
 20
0.0
  9
$PLIMMAX
 10
420.0
 20
297.0
  9
$UNITMODE
 70
     0
  9
$VISRETAIN
 70
     1
  9
$PLINEGEN
 70
     0
  9
$PSLTSCALE
 70
     1
  9
$TREEDEPTH
 70
  3020
  9
$CMLSTYLE
  2
Standard
  9
$CMLJUST
 70
     0
  9
$CMLSCALE
 40
20.0
  9
$PROXYGRAPHICS
 70
     1
  9
$MEASUREMENT
 70
     1
  9
$CELWEIGHT
370
    -1
  9
$ENDCAPS
280
     0
  9
$JOINSTYLE
280
     0
  9
$LWDISPLAY
290
     1
  9
$INSUNITS
 70
     4
  9
$HYPERLINKBASE
  1

  9
$STYLESHEET
  1

  9
$XEDIT
290
     1
  9
$CEPSNTYPE
380
     0
  9
$PSTYLEMODE
290
     1
  9
$FINGERPRINTGUID
  2
{5821E478-EFB2-4E79-ACA0-DC97F5CD4DE8}
  9
$VERSIONGUID
  2
{FAEB1C32-E019-11D5-929B-00C0DF256EC4}
  9
$EXTNAMES
290
     1
  9
$PSVPSCALE
 40
0.0
  9
$OLESTARTUP
290
     0
  9
$SORTENTS
280
   127
  9
$INDEXCTL
280
     0
  9
$HIDETEXT
280
     1
  9
$XCLIPFRAME
280
     2
  9
$HALOGAP
280
     0
  9
$OBSCOLOR
 70
   257
  9
$OBSLTYPE
280
     0
  9
$INTERSECTIONDISPLAY
280
     0
  9
$INTERSECTIONCOLOR
 70
   257
  9
$DIMASSOC
280
     2
  9
$PROJECTNAME
  1

  9
$CAMERADISPLAY
290
     0
  9
$LENSLENGTH
 40
50.0
  9
$CAMERAHEIGHT
 40
0.0
  9
$STEPSPERSEC
 40
2.0
  9
$STEPSIZE
 40
6.0
  9
$3DDWFPREC
 40
2.0
  9
$PSOLWIDTH
 40
5.0
  9
$PSOLHEIGHT
 40
80.0
  9
$LOFTANG1
 40
1.5707963268
  9
$LOFTANG2
 40
1.5707963268
  9
$LOFTMAG1
 40
0.0
  9
$LOFTMAG2
 40
0.0
  9
$LOFTPARAM
 70
     7
  9
$LOFTNORMALS
280
     1
  9
$LATITUDE
 40
37.795
  9
$LONGITUDE
 40
-122.394
  9
$NORTHDIRECTION
 40
0.0
  9
$TIMEZONE
 70
 -8000
  9
$LIGHTGLYPHDISPLAY
280
     1
  9
$TILEMODELIGHTSYNCH
280
     1
  9
$CMATERIAL
347
44
  9
$SOLIDHIST
280
     0
  9
$SHOWHIST
280
     1
  9
$DWFFRAME
280
     2
  9
$DGNFRAME
280
     2
  9
$REALWORLDSCALE
290
     1
  9
$INTERFERECOLOR
 62
   256
  9
$CSHADOW
280
     0
  9
$SHADOWPLANELOCATION
 40
0.0
  0
ENDSEC
  0
SECTION
  2
CLASSES
  0
CLASS
  1
ACDBDICTIONARYWDFLT
  2
AcDbDictionaryWithDefault
  3
ObjectDBX Classes
 90
        0
 91
        4
280
     0
281
     0
  0
CLASS
  1
VISUALSTYLE
  2
AcDbVisualStyle
  3
ObjectDBX Classes
 90
     4095
 91
        4
280
     0
281
     0
  0
CLASS
  1
MATERIAL
  2
AcDbMaterial
  3
ObjectDBX Classes
 90
     1153
 91
        4
280
     0
281
     0
  0
CLASS
  1
SCALE
  2
AcDbScale
  3
ObjectDBX Classes
 90
     1153
 91
        4
280
     0
281
     0
  0
CLASS
  1
TABLESTYLE
  2
AcDbTableStyle
  3
ObjectDBX Classes
 90
     4095
 91
        4
280
     0
281
     0
  0
CLASS
  1
MLEADERSTYLE
  2
AcDbMLeaderStyle
  3
ACDB_MLEADERSTYLE_CLASS
 90
     4095
 91
        4
280
     0
281
     0
  0
CLASS
  1
SUN
  2
AcDbSun
  3
SCENEOE
 90
     1153
 91
        4
280
     0
281
     0
  0
CLASS
  1
DICTIONARYVAR
  2
AcDbDictionaryVar
  3
ObjectDBX Classes
 90
        0
 91
        4
280
     0
281
     0
  0
CLASS
  1
CELLSTYLEMAP
  2
AcDbCellStyleMap
  3
ObjectDBX Classes
 90
     1152
 91
        4
280
     0
281
     0
  0
ENDSEC
  0
SECTION
  2
TABLES
  0
TABLE
  2
VPORT
  5
8
330
0
100
AcDbSymbolTable
 70
     1
  0
VPORT
  5
29
330
8
100
AcDbSymbolTableRecord
100
AcDbViewportTableRecord
  2
*Active
 70
     0
 10
0.0
 20
0.0
 11
1.0
 21
1.0
 12
297.0
 22
210.0
 13
0.0
 23
0.0
 14
10.0
 24
10.0
 15
10.0
 25
10.0
 16
0.0
 26
0.0
 36
1.0
 17
0.0
 27
0.0
 37
0.0
 40
420.0
 41
1.4142857143
 42
50.0
 43
0.0
 44
0.0
 50
0.0
 51
0.0
 71
     0
 72
  2000
 73
     1
 74
     3
 75
     0
 76
     0
 77
     0
 78
     0
281
     0
 65
     1
110
0.0
120
0.0
130
0.0
111
1.0
121
0.0
131
0.0
112
0.0
122
1.0
132
0.0
 79
     0
146
0.0
348
2F
 60
     3
 61
     5
292
     1
282
     1
141
0.0
142
0.0
 63
   250
361
6D
  0
ENDTAB
  0
TABLE
  2
LTYPE
  5
5
330
0
100
AcDbSymbolTable
 70
     6
  0
LTYPE
  5
14
330
5
100
AcDbSymbolTableRecord
100
AcDbLinetypeTableRecord
  2
ByBlock
 70
     0
  3

 72
    65
 73
     0
 40
0.0
  0
LTYPE
  5
15
330
5
100
AcDbSymbolTableRecord
100
AcDbLinetypeTableRecord
  2
ByLayer
 70
     0
  3

 72
    65
 73
     0
 40
0.0
  0
LTYPE
  5
16
330
5
100
AcDbSymbolTableRecord
100
AcDbLinetypeTableRecord
  2
Continuous
 70
     0
  3
Solid line
 72
    65
 73
     0
 40
0.0
  0
LTYPE
  5
6E
330
5
100
AcDbSymbolTableRecord
100
AcDbLinetypeTableRecord
  2
HIDDEN
 70
     0
  3
Hidden __ __ __ __ __ __ __ __ __ __ __ __ __ __
 72
    65
 73
     2
 40
1.905
 49
1.27
 74
     0
 49
-0.635
 74
     0
  0
LTYPE
  5
6F
330
5
100
AcDbSymbolTableRecord
100
AcDbLinetypeTableRecord
  2
PHANTOM
 70
     0
  3
Phantom ______  __  __  ______  __  __  ______
 72
    65
 73
     6
 40
12.7
 49
6.35
 74
     0
 49
-1.27
 74
     0
 49
1.27
 74
     0
 49
-1.27
 74
     0
 49
1.27
 74
     0
 49
-1.27
 74
     0
  0
LTYPE
  5
70
330
5
100
AcDbSymbolTableRecord
100
AcDbLinetypeTableRecord
  2
CENTER
 70
     0
  3
Center ____ _ ____ _ ____ _ ____ _ ____ _ ____
 72
    65
 73
     4
 40
10.16
 49
6.35
 74
     0
 49
-1.27
 74
     0
 49
1.27
 74
     0
 49
-1.27
 74
     0
  0
LTYPE
  5
71
330
5
100
AcDbSymbolTableRecord
100
AcDbLinetypeTableRecord
  2
CENTERX2
 70
     0
  3
Center (2x) ________  __  ________  __  _____
 72
    65
 73
     4
 40
20.32
 49
12.7
 74
     0
 49
-2.54
 74
     0
 49
2.54
 74
     0
 49
-2.54
 74
     0
  0
LTYPE
  5
72
330
5
100
AcDbSymbolTableRecord
100
AcDbLinetypeTableRecord
  2
DOT2
 70
     0
  3
Dot (.5x) ........................................
 72
    65
 73
     2
 40
0.635
 49
0.0
 74
     0
 49
-0.635
 74
     0
  0
ENDTAB
  0
TABLE
  2
LAYER
  5
2
330
0
100
AcDbSymbolTable
 70
    37
  0
LAYER
  5
10
330
2
100
AcDbSymbolTableRecord
100
AcDbLayerTableRecord
  2
0
 70
     0
 62
     7
  6
Continuous
370
    -3
390
F
347
46
348
0
  0
LAYER
  5
73
330
2
100
AcDbSymbolTableRecord
100
AcDbLayerTableRecord
  2
SLD-0
 70
     0
 62
     7
  6
Continuous
370
    -3
390
F
347
46
348
0
  0
LAYER
  5
74
330
2
100
AcDbSymbolTableRecord
100
AcDbLayerTableRecord
  2
RAHMEN025
 70
     0
 62
     7
  6
Continuous
370
    -3
390
F
347
46
348
0
  0
LAYER
  5
75
330
2
100
AcDbSymbolTableRecord
100
AcDbLayerTableRecord
  2
RAHMEN07
 70
     0
 62
     5
  6
Continuous
370
    -3
390
F
347
46
348
0
  0
LAYER
  5
76
330
2
100
AcDbSymbolTableRecord
100
AcDbLayerTableRecord
  2
RAHMEN05
 70
     0
 62
     6
  6
Continuous
370
    -3
390
F
347
46
348
0
  0
LAYER
  5
77
330
2
100
AcDbSymbolTableRecord
100
AcDbLayerTableRecord
  2
TB
 70
     0
 62
     7
  6
Continuous
370
    -3
390
F
347
46
348
0
  0
LAYER
  5
78
330
2
100
AcDbSymbolTableRecord
100
AcDbLayerTableRecord
  2
1-VIDNO
 70
     0
 62
     5
  6
Continuous
370
    -3
390
F
347
46
348
0
  0
LAYER
  5
79
330
2
100
AcDbSymbolTableRecord
100
AcDbLayerTableRecord
  2
2-NEVIDNO
 70
     0
 62
     5
  6
HIDDEN
370
    -3
390
F
347
46
348
0
  0
LAYER
  5
7A
330
2
100
AcDbSymbolTableRecord
100
AcDbLayerTableRecord
  2
O-GLAVE
 70
     0
 62
     5
  6
Continuous
370
    -3
390
F
347
46
348
0
  0
LAYER
  5
7B
330
2
100
AcDbSymbolTableRecord
100
AcDbLayerTableRecord
  2
O-TEKST
 70
     0
 62
     7
  6
Continuous
370
    -3
390
F
347
46
348
0
  0
LAYER
  5
7C
330
2
100
AcDbSymbolTableRecord
100
AcDbLayerTableRecord
  2
O-ZUNANJI
 70
     0
 62
     7
  6
Continuous
370
    -3
390
F
347
46
348
0
  0
LAYER
  5
7D
330
2
100
AcDbSymbolTableRecord
100
AcDbLayerTableRecord
  2
SLD-DEFPOINTS
 70
     0
 62
     7
  6
Continuous
370
    -3
390
F
347
46
348
0
  0
LAYER
  5
7E
330
2
100
AcDbSymbolTableRecord
100
AcDbLayerTableRecord
  2
3-POMOZNO
 70
     0
 62
     4
  6
Continuous
370
    -3
390
F
347
46
348
0
  0
LAYER
  5
7F
330
2
100
AcDbSymbolTableRecord
100
AcDbLayerTableRecord
  2
4-SREDNJICA
 70
     0
 62
     1
  6
CENTER
370
    -3
390
F
347
46
348
0
  0
LAYER
  5
80
330
2
100
AcDbSymbolTableRecord
100
AcDbLayerTableRecord
  2
5-SRAFURA
 70
     0
 62
     7
  6
Continuous
370
    -3
390
F
347
46
348
0
  0
LAYER
  5
81
330
2
100
AcDbSymbolTableRecord
100
AcDbLayerTableRecord
  2
6-KOTE
 70
     0
 62
     7
  6
Continuous
370
    -3
390
F
347
46
348
0
  0
LAYER
  5
82
330
2
100
AcDbSymbolTableRecord
100
AcDbLayerTableRecord
  2
7-TEKST
 70
     0
 62
     7
  6
Continuous
370
    -3
390
F
347
46
348
0
  0
LAYER
  5
83
330
2
100
AcDbSymbolTableRecord
100
AcDbLayerTableRecord
  2
8-VARJENJA
 70
     0
 62
     1
  6
Continuous
370
    -3
390
F
347
46
348
0
  0
LAYER
  5
84
330
2
100
AcDbSymbolTableRecord
100
AcDbLayerTableRecord
  2
BEMASSUNG
 70
     0
 62
     7
  6
Continuous
370
    -3
390
F
347
46
348
0
  0
LAYER
  5
85
330
2
100
AcDbSymbolTableRecord
100
AcDbLayerTableRecord
  2
UMRISS03
 70
     0
 62
     7
  6
Continuous
370
    -3
390
F
347
46
348
0
  0
LAYER
  5
86
330
2
100
AcDbSymbolTableRecord
100
AcDbLayerTableRecord
  2
UMRISS02
 70
     0
 62
     7
  6
Continuous
370
    -3
390
F
347
46
348
0
  0
LAYER
  5
87
330
2
100
AcDbSymbolTableRecord
100
AcDbLayerTableRecord
  2
HILFSLINIEN
 70
     0
 62
     7
  6
Continuous
370
    -3
390
F
347
46
348
0
  0
LAYER
  5
88
330
2
100
AcDbSymbolTableRecord
100
AcDbLayerTableRecord
  2
UMRISS03_-PSPAC_
 70
     0
 62
     7
  6
Continuous
370
    -3
390
F
347
46
348
0
  0
LAYER
  5
89
330
2
100
AcDbSymbolTableRecord
100
AcDbLayerTableRecord
  2
ACA_VARSAVE
 70
     0
 62
     7
  6
Continuous
370
    -3
390
F
347
46
348
0
  0
LAYER
  5
8A
330
2
100
AcDbSymbolTableRecord
100
AcDbLayerTableRecord
  2
KONTUREN
 70
     0
 62
     7
  6
Continuous
370
    -3
390
F
347
46
348
0
  0
LAYER
  5
8B
330
2
100
AcDbSymbolTableRecord
100
AcDbLayerTableRecord
  2
ACHSE
 70
     0
 62
     7
  6
Continuous
370
    -3
390
F
347
46
348
0
  0
LAYER
  5
8C
330
2
100
AcDbSymbolTableRecord
100
AcDbLayerTableRecord
  2
UNSICHTBAR
 70
     0
 62
     7
  6
Continuous
370
    -3
390
F
347
46
348
0
  0
LAYER
  5
8D
330
2
100
AcDbSymbolTableRecord
100
AcDbLayerTableRecord
  2
MASSE
 70
     0
 62
     7
  6
Continuous
370
    -3
390
F
347
46
348
0
  0
LAYER
  5
8E
330
2
100
AcDbSymbolTableRecord
100
AcDbLayerTableRecord
  2
RAND
 70
     0
 62
     7
  6
Continuous
370
    -3
390
F
347
46
348
0
  0
LAYER
  5
8F
330
2
100
AcDbSymbolTableRecord
100
AcDbLayerTableRecord
  2
D-TEXT
 70
     0
 62
     7
  6
Continuous
370
    -3
390
F
347
46
348
0
  0
LAYER
  5
90
330
2
100
AcDbSymbolTableRecord
100
AcDbLayerTableRecord
  2
F-TEXT
 70
     0
 62
     7
  6
Continuous
370
    -3
390
F
347
46
348
0
  0
LAYER
  5
91
330
2
100
AcDbSymbolTableRecord
100
AcDbLayerTableRecord
  2
I-TEXT
 70
     0
 62
     7
  6
Continuous
370
    -3
390
F
347
46
348
0
  0
LAYER
  5
92
330
2
100
AcDbSymbolTableRecord
100
AcDbLayerTableRecord
  2
D-TEXT-FETT
 70
     0
 62
     7
  6
Continuous
370
    -3
390
F
347
46
348
0
  0
LAYER
  5
93
330
2
100
AcDbSymbolTableRecord
100
AcDbLayerTableRecord
  2
F-TEXT-FETT
 70
     0
 62
     7
  6
Continuous
370
    -3
390
F
347
46
348
0
  0
LAYER
  5
94
330
2
100
AcDbSymbolTableRecord
100
AcDbLayerTableRecord
  2
I-TEXT-FETT
 70
     0
 62
     7
  6
Continuous
370
    -3
390
F
347
46
348
0
  0
LAYER
  5
95
330
2
100
AcDbSymbolTableRecord
100
AcDbLayerTableRecord
  2
TEXT-D-F-I
 70
     0
 62
     7
  6
Continuous
370
    -3
390
F
347
46
348
0
  0
LAYER
  5
96
330
2
100
AcDbSymbolTableRecord
100
AcDbLayerTableRecord
  2
TEXT-D-F-I-FETT
 70
     0
 62
     7
  6
Continuous
370
    -3
390
F
347
46
348
0
  0
ENDTAB
  0
TABLE
  2
STYLE
  5
3
330
0
100
AcDbSymbolTable
 70
     2
  0
STYLE
  5
11
330
3
100
AcDbSymbolTableRecord
100
AcDbTextStyleTableRecord
  2
Standard
 70
     0
 40
0.0
 41
1.0
 50
0.0
 71
     0
 42
3.5
  3
txt
  4

  0
STYLE
  5
151
330
3
100
AcDbSymbolTableRecord
100
AcDbTextStyleTableRecord
  2
SLDTEXTSTYLE0
 70
     0
 40
0.0
 41
0.75
 50
0.0
 71
     0
 42
3.5
  3
TXT
  4

  0
ENDTAB
  0
TABLE
  2
VIEW
  5
6
330
0
100
AcDbSymbolTable
 70
     0
  0
ENDTAB
  0
TABLE
  2
UCS
  5
7
330
0
100
AcDbSymbolTable
 70
     0
  0
ENDTAB
  0
TABLE
  2
APPID
  5
9
330
0
100
AcDbSymbolTable
 70
     1
  0
APPID
  5
12
330
9
100
AcDbSymbolTableRecord
100
AcDbRegAppTableRecord
  2
ACAD
 70
     0
  0
ENDTAB
  0
TABLE
  2
DIMSTYLE
  5
A
330
0
100
AcDbSymbolTable
 70
     1
100
AcDbDimStyleTable
  0
DIMSTYLE
105
27
330
A
100
AcDbSymbolTableRecord
100
AcDbDimStyleTableRecord
  2
ISO-25
 70
     0
 41
2.5
 42
0.625
 43
3.75
 44
1.25
 73
     0
 74
     0
 77
     1
 78
     8
140
2.5
141
2.5
143
0.0393700787
147
0.625
171
     3
172
     1
178
     0
271
     2
272
     2
274
     3
278
    44
283
     0
284
     8
340
11
  0
ENDTAB
  0
TABLE
  2
BLOCK_RECORD
  5
1
330
0
100
AcDbSymbolTable
 70
     3
  0
BLOCK_RECORD
  5
1F
330
1
100
AcDbSymbolTableRecord
100
AcDbBlockTableRecord
  2
*Model_Space
340
22
 70
     0
280
     1
281
     0
  0
BLOCK_RECORD
  5
1B
330
1
100
AcDbSymbolTableRecord
100
AcDbBlockTableRecord
  2
*Paper_Space
340
1E
 70
     0
280
     1
281
     0
  0
BLOCK_RECORD
  5
23
330
1
100
AcDbSymbolTableRecord
100
AcDbBlockTableRecord
  2
*Paper_Space0
340
26
 70
     0
280
     1
281
     0
  0
BLOCK_RECORD
  5
221
330
1
100
AcDbSymbolTableRecord
100
AcDbBlockTableRecord
  2
SW_NOTE_0
340
0
102
{BLKREFS
331
226
102
}
 70
     0
280
     1
281
     0
  0
BLOCK_RECORD
  5
288
330
1
100
AcDbSymbolTableRecord
100
AcDbBlockTableRecord
  2
SW_NOTE_1
340
0
102
{BLKREFS
331
28D
102
}
 70
     0
280
     1
281
     0
  0
ENDTAB
  0
ENDSEC
  0
SECTION
  2
BLOCKS
  0
BLOCK
  5
20
330
1F
100
AcDbEntity
  8
0
100
AcDbBlockBegin
  2
*Model_Space
 70
     0
 10
0.0
 20
0.0
 30
0.0
  3
*Model_Space
  1

  0
ENDBLK
  5
21
330
1F
100
AcDbEntity
  8
0
100
AcDbBlockEnd
  0
BLOCK
  5
1C
330
1B
100
AcDbEntity
 67
     1
  8
0
100
AcDbBlockBegin
  2
*Paper_Space
 70
     0
 10
0.0
 20
0.0
 30
0.0
  3
*Paper_Space
  1

  0
ENDBLK
  5
1D
330
1B
100
AcDbEntity
 67
     1
  8
0
100
AcDbBlockEnd
  0
BLOCK
  5
24
330
23
100
AcDbEntity
  8
0
100
AcDbBlockBegin
  2
*Paper_Space0
 70
     0
 10
0.0
 20
0.0
 30
0.0
  3
*Paper_Space0
  1

  0
ENDBLK
  5
25
330
23
100
AcDbEntity
  8
0
100
AcDbBlockEnd
  0
BLOCK
  5
222
330
221
100
AcDbEntity
  8
0
100
AcDbBlockBegin
  2
SW_NOTE_0
 70
     0
 10
0.0
 20
0.0
 30
0.0
  3
SW_NOTE_0
  1

  0
MTEXT
  5
224
330
221
100
AcDbEntity
  8
O-TEKST
 62
     0
100
AcDbMText
 10
16.0734375
 20
8.1855801476
 30
0.0
 40
6.35
 41
0.0
 46
0.0
 71
     2
 72
     1
  1
SCHNITT
  7
SLDTEXTSTYLE0
 73
     1
 44
1.0
  0
MTEXT
  5
225
330
221
100
AcDbEntity
  8
O-TEKST
 62
     0
100
AcDbMText
 10
38.5538176
 20
5.3469457771
 30
0.0
 40
3.5
 41
0.0
 46
0.0
 71
     2
 72
     1
  1
A-A
  7
SLDTEXTSTYLE0
 73
     1
 44
1.0
  0
ENDBLK
  5
223
330
221
100
AcDbEntity
  8
0
100
AcDbBlockEnd
  0
BLOCK
  5
289
330
288
100
AcDbEntity
  8
0
100
AcDbBlockBegin
  2
SW_NOTE_1
 70
     0
 10
0.0
 20
0.0
 30
0.0
  3
SW_NOTE_1
  1

  0
MTEXT
  5
28B
330
288
100
AcDbEntity
  8
O-TEKST
 62
     0
100
AcDbMText
 10
16.0734375
 20
8.1855801476
 30
0.0
 40
6.35
 41
0.0
 46
0.0
 71
     2
 72
     1
  1
SCHNITT
  7
SLDTEXTSTYLE0
 73
     1
 44
1.0
  0
MTEXT
  5
28C
330
288
100
AcDbEntity
  8
O-TEKST
 62
     0
100
AcDbMText
 10
38.0069426
 20
5.3469457771
 30
0.0
 40
3.5
 41
0.0
 46
0.0
 71
     2
 72
     1
  1
B-B
  7
SLDTEXTSTYLE0
 73
     1
 44
1.0
  0
ENDBLK
  5
28A
330
288
100
AcDbEntity
  8
0
100
AcDbBlockEnd
  0
ENDSEC
  0
SECTION
  2
ENTITIES
  0
LINE
  5
97
330
1F
100
AcDbEntity
  8
0
  6
Continuous
 62
     7
370
    25
100
AcDbLine
 10
86.8625197043
 20
118.1617883844
 30
0.0
 11
86.8625197043
 21
119.7617883844
 31
0.0
  0
LINE
  5
98
330
1F
100
AcDbEntity
  8
0
  6
Continuous
 62
     7
370
    25
100
AcDbLine
 10
83.3625197043
 20
119.7617883844
 30
0.0
 11
83.3625197043
 21
118.1617883844
 31
0.0
  0
ARC
  5
99
330
1F
100
AcDbEntity
  8
0
  6
Continuous
 62
     7
370
    25
100
AcDbCircle
 10
83.5625197043
 20
118.1617883844
 30
0.0
 40
0.2000000000000028
100
AcDbArc
 50
180.0
 51
270.0
  0
LINE
  5
9A
330
1F
100
AcDbEntity
  8
0
  6
Continuous
 62
     7
370
    25
100
AcDbLine
 10
86.5625197043
 20
119.7617883844
 30
0.0
 11
83.6625197043
 21
119.7617883844
 31
0.0
  0
ARC
  5
9B
330
1F
100
AcDbEntity
  8
0
  6
Continuous
 62
     7
370
    25
100
AcDbCircle
 10
83.5625197043
 20
119.7617883844
 30
0.0
 40
0.2000000000000028
100
AcDbArc
 50
90.0
 51
180.0
  0
ARC
  5
9C
330
1F
100
AcDbEntity
  8
0
  6
Continuous
 62
     7
370
    25
100
AcDbCircle
 10
86.5625197043
 20
119.6617883844
 30
0.0
 40
0.1000000000000085
100
AcDbArc
 50
0.0
 51
90.0
  0
ARC
  5
9D
330
1F
100
AcDbEntity
  8
0
  6
Continuous
 62
     7
370
    25
100
AcDbCircle
 10
86.6625197043
 20
118.1617883844
 30
0.0
 40
0.2000000000000028
100
AcDbArc
 50
270.0
 51
0.0
  0
LINE
  5
9E
330
1F
100
AcDbEntity
  8
0
  6
Continuous
 62
     7
370
    25
100
AcDbLine
 10
83.5625197043
 20
117.9617883844
 30
0.0
 11
86.6625197043
 21
117.9617883844
 31
0.0
  0
LINE
  5
9F
330
1F
100
AcDbEntity
  8
0
  6
Continuous
 62
     7
370
    25
100
AcDbLine
 10
83.6625197043
 20
118.1617883844
 30
0.0
 11
86.5625197043
 21
118.1617883844
 31
0.0
  0
ARC
  5
A0
330
1F
100
AcDbEntity
  8
0
  6
Continuous
 62
     7
370
    25
100
AcDbCircle
 10
83.6625197043
 20
118.2617883844
 30
0.0
 40
0.1000000000000085
100
AcDbArc
 50
180.0
 51
270.0
  0
LINE
  5
A1
330
1F
100
AcDbEntity
  8
0
  6
Continuous
 62
     7
370
    25
100
AcDbLine
 10
83.5625197043
 20
119.6617883844
 30
0.0
 11
83.5625197043
 21
118.2617883844
 31
0.0
  0
ARC
  5
A2
330
1F
100
AcDbEntity
  8
0
  6
Continuous
 62
     7
370
    25
100
AcDbCircle
 10
83.6625197043
 20
119.6617883844
 30
0.0
 40
0.1000000000000085
100
AcDbArc
 50
90.0
 51
180.0
  0
ARC
  5
A3
330
1F
100
AcDbEntity
  8
0
  6
Continuous
 62
     7
370
    25
100
AcDbCircle
 10
86.6625197043
 20
119.7617883844
 30
0.0
 40
0.1999999999999886
100
AcDbArc
 50
0.0
 51
90.0
  0
LINE
  5
A4
330
1F
100
AcDbEntity
  8
0
  6
Continuous
 62
     7
370
    25
100
AcDbLine
 10
86.6625197043
 20
118.2617883844
 30
0.0
 11
86.6625197043
 21
119.6617883844
 31
0.0
  0
LINE
  5
A5
330
1F
100
AcDbEntity
  8
0
  6
Continuous
 62
     7
370
    25
100
AcDbLine
 10
86.6625197043
 20
119.9617883844
 30
0.0
 11
83.5625197043
 21
119.9617883844
 31
0.0
  0
ARC
  5
A6
330
1F
100
AcDbEntity
  8
0
  6
Continuous
 62
     7
370
    25
100
AcDbCircle
 10
86.5625197043
 20
118.2617883844
 30
0.0
 40
0.1000000000000085
100
AcDbArc
 50
270.0
 51
0.0
  0
ARC
  5
A7
330
1F
100
AcDbEntity
  8
0
  6
Continuous
 62
     7
370
    25
100
AcDbCircle
 10
83.6625197043
 20
150.4617883844
 30
0.0
 40
0.0999999999999943
100
AcDbArc
 50
180.0
 51
270.0
  0
LINE
  5
A8
330
1F
100
AcDbEntity
  8
0
  6
Continuous
 62
     7
370
    25
100
AcDbLine
 10
83.6625197043
 20
150.3617883844
 30
0.0
 11
86.5625197043
 21
150.3617883844
 31
0.0
  0
ARC
  5
A9
330
1F
100
AcDbEntity
  8
0
  6
Continuous
 62
     7
370
    25
100
AcDbCircle
 10
86.5625197043
 20
150.4617883844
 30
0.0
 40
0.1000000000000085
100
AcDbArc
 50
270.0
 51
0.0
  0
ARC
  5
AA
330
1F
100
AcDbEntity
  8
0
  6
Continuous
 62
     7
370
    25
100
AcDbCircle
 10
86.5625197043
 20
151.8617883844
 30
0.0
 40
0.1000000000000085
100
AcDbArc
 50
0.0
 51
90.0
  0
LINE
  5
AB
330
1F
100
AcDbEntity
  8
0
  6
Continuous
 62
     7
370
    25
100
AcDbLine
 10
86.5625197043
 20
151.9617883844
 30
0.0
 11
83.6625197043
 21
151.9617883844
 31
0.0
  0
ARC
  5
AC
330
1F
100
AcDbEntity
  8
0
  6
Continuous
 62
     7
370
    25
100
AcDbCircle
 10
83.6625197043
 20
151.8617883844
 30
0.0
 40
0.0999999999999943
100
AcDbArc
 50
90.0
 51
180.0
  0
LINE
  5
AD
330
1F
100
AcDbEntity
  8
0
  6
Continuous
 62
     7
370
    25
100
AcDbLine
 10
83.5625197043
 20
151.8617883844
 30
0.0
 11
83.5625197043
 21
150.4617883844
 31
0.0
  0
LINE
  5
AE
330
1F
100
AcDbEntity
  8
0
  6
Continuous
 62
     7
370
    25
100
AcDbLine
 10
83.5625197043
 20
150.1617883844
 30
0.0
 11
86.6625197043
 21
150.1617883844
 31
0.0
  0
ARC
  5
AF
330
1F
100
AcDbEntity
  8
0
  6
Continuous
 62
     7
370
    25
100
AcDbCircle
 10
83.5625197043
 20
150.3617883844
 30
0.0
 40
0.2000000000000028
100
AcDbArc
 50
180.0
 51
270.0
  0
LINE
  5
B0
330
1F
100
AcDbEntity
  8
0
  6
Continuous
 62
     7
370
    25
100
AcDbLine
 10
83.3625197043
 20
151.9617883844
 30
0.0
 11
83.3625197043
 21
150.3617883844
 31
0.0
  0
ARC
  5
B1
330
1F
100
AcDbEntity
  8
0
  6
Continuous
 62
     7
370
    25
100
AcDbCircle
 10
83.5625197043
 20
151.9617883844
 30
0.0
 40
0.2000000000000171
100
AcDbArc
 50
90.0
 51
180.0
  0
ARC
  5
B2
330
1F
100
AcDbEntity
  8
0
  6
Continuous
 62
     7
370
    25
100
AcDbCircle
 10
86.6625197043
 20
151.9617883844
 30
0.0
 40
0.2000000000000171
100
AcDbArc
 50
0.0
 51
90.0
  0
LINE
  5
B3
330
1F
100
AcDbEntity
  8
0
  6
Continuous
 62
     7
370
    25
100
AcDbLine
 10
86.8625197043
 20
150.3617883844
 30
0.0
 11
86.8625197043
 21
151.9617883844
 31
0.0
  0
LINE
  5
B4
330
1F
100
AcDbEntity
  8
0
  6
Continuous
 62
     7
370
    25
100
AcDbLine
 10
86.6625197043
 20
152.1617883844
 30
0.0
 11
83.5625197043
 21
152.1617883844
 31
0.0
  0
LINE
  5
B5
330
1F
100
AcDbEntity
  8
0
  6
Continuous
 62
     7
370
    25
100
AcDbLine
 10
86.6625197043
 20
150.4617883844
 30
0.0
 11
86.6625197043
 21
151.8617883844
 31
0.0
  0
ARC
  5
B6
330
1F
100
AcDbEntity
  8
0
  6
Continuous
 62
     7
370
    25
100
AcDbCircle
 10
86.6625197043
 20
150.3617883844
 30
0.0
 40
0.1999999999999886
100
AcDbArc
 50
270.0
 51
0.0
  0
ARC
  5
B7
330
1F
100
AcDbEntity
  8
0
  6
Continuous
 62
     7
370
    25
100
AcDbCircle
 10
86.5625197043
 20
65.2617883844
 30
0.0
 40
0.1000000000000085
100
AcDbArc
 50
0.0
 51
90.0
  0
LINE
  5
B8
330
1F
100
AcDbEntity
  8
0
  6
Continuous
 62
     7
370
    25
100
AcDbLine
 10
83.5625197043
 20
65.2617883844
 30
0.0
 11
83.5625197043
 21
63.8617883844
 31
0.0
  0
ARC
  5
B9
330
1F
100
AcDbEntity
  8
0
  6
Continuous
 62
     7
370
    25
100
AcDbCircle
 10
83.6625197043
 20
63.8617883844
 30
0.0
 40
0.1000000000000014
100
AcDbArc
 50
180.0
 51
270.0
  0
LINE
  5
BA
330
1F
100
AcDbEntity
  8
0
  6
Continuous
 62
     7
370
    25
100
AcDbLine
 10
83.6625197043
 20
63.7617883844
 30
0.0
 11
86.5625197043
 21
63.7617883844
 31
0.0
  0
ARC
  5
BB
330
1F
100
AcDbEntity
  8
0
  6
Continuous
 62
     7
370
    25
100
AcDbCircle
 10
86.5625197043
 20
63.8617883844
 30
0.0
 40
0.1000000000000085
100
AcDbArc
 50
270.0
 51
0.0
  0
LINE
  5
BC
330
1F
100
AcDbEntity
  8
0
  6
Continuous
 62
     7
370
    25
100
AcDbLine
 10
86.6625197043
 20
63.8617883844
 30
0.0
 11
86.6625197043
 21
65.2617883844
 31
0.0
  0
LINE
  5
BD
330
1F
100
AcDbEntity
  8
0
  6
Continuous
 62
     7
370
    25
100
AcDbLine
 10
86.6625197043
 20
65.5617883844
 30
0.0
 11
83.5625197043
 21
65.5617883844
 31
0.0
  0
LINE
  5
BE
330
1F
100
AcDbEntity
  8
0
  6
Continuous
 62
     7
370
    25
100
AcDbLine
 10
83.3625197043
 20
65.3617883844
 30
0.0
 11
83.3625197043
 21
63.7617883844
 31
0.0
  0
ARC
  5
BF
330
1F
100
AcDbEntity
  8
0
  6
Continuous
 62
     7
370
    25
100
AcDbCircle
 10
83.5625197043
 20
65.3617883844
 30
0.0
 40
0.2000000000000028
100
AcDbArc
 50
90.0
 51
180.0
  0
LINE
  5
C0
330
1F
100
AcDbEntity
  8
0
  6
Continuous
 62
     7
370
    25
100
AcDbLine
 10
86.8625197043
 20
63.7617883844
 30
0.0
 11
86.8625197043
 21
65.3617883844
 31
0.0
  0
ARC
  5
C1
330
1F
100
AcDbEntity
  8
0
  6
Continuous
 62
     7
370
    25
100
AcDbCircle
 10
83.6625197043
 20
65.2617883844
 30
0.0
 40
0.1000000000000085
100
AcDbArc
 50
90.0
 51
180.0
  0
ARC
  5
C2
330
1F
100
AcDbEntity
  8
0
  6
Continuous
 62
     7
370
    25
100
AcDbCircle
 10
83.5625197043
 20
63.7617883844
 30
0.0
 40
0.2000000000000099
100
AcDbArc
 50
180.0
 51
270.0
  0
ARC
  5
C3
330
1F
100
AcDbEntity
  8
0
  6
Continuous
 62
     7
370
    25
100
AcDbCircle
 10
86.6625197043
 20
63.7617883844
 30
0.0
 40
0.2000000000000099
100
AcDbArc
 50
270.0
 51
0.0
  0
ARC
  5
C4
330
1F
100
AcDbEntity
  8
0
  6
Continuous
 62
     7
370
    25
100
AcDbCircle
 10
86.6625197043
 20
65.3617883844
 30
0.0
 40
0.1999999999999886
100
AcDbArc
 50
0.0
 51
90.0
  0
LINE
  5
C5
330
1F
100
AcDbEntity
  8
0
  6
Continuous
 62
     7
370
    25
100
AcDbLine
 10
83.5625197043
 20
63.5617883844
 30
0.0
 11
86.6625197043
 21
63.5617883844
 31
0.0
  0
LINE
  5
C6
330
1F
100
AcDbEntity
  8
0
  6
Continuous
 62
     7
370
    25
100
AcDbLine
 10
86.5625197043
 20
65.3617883844
 30
0.0
 11
83.6625197043
 21
65.3617883844
 31
0.0
  0
ARC
  5
C7
330
1F
100
AcDbEntity
  8
0
  6
Continuous
 62
     7
370
    25
100
AcDbCircle
 10
83.6625197043
 20
97.4617883844
 30
0.0
 40
0.0999999999999943
100
AcDbArc
 50
90.0
 51
180.0
  0
LINE
  5
C8
330
1F
100
AcDbEntity
  8
0
  6
Continuous
 62
     7
370
    25
100
AcDbLine
 10
83.5625197043
 20
95.7617883844
 30
0.0
 11
86.6625197043
 21
95.7617883844
 31
0.0
  0
LINE
  5
C9
330
1F
100
AcDbEntity
  8
0
  6
Continuous
 62
     7
370
    25
100
AcDbLine
 10
86.6625197043
 20
97.7617883844
 30
0.0
 11
83.5625197043
 21
97.7617883844
 31
0.0
  0
LINE
  5
CA
330
1F
100
AcDbEntity
  8
0
  6
Continuous
 62
     7
370
    25
100
AcDbLine
 10
86.8625197043
 20
95.9617883844
 30
0.0
 11
86.8625197043
 21
97.5617883844
 31
0.0
  0
ARC
  5
CB
330
1F
100
AcDbEntity
  8
0
  6
Continuous
 62
     7
370
    25
100
AcDbCircle
 10
86.6625197043
 20
95.9617883844
 30
0.0
 40
0.2000000000000028
100
AcDbArc
 50
270.0
 51
0.0
  0
LINE
  5
CC
330
1F
100
AcDbEntity
  8
0
  6
Continuous
 62
     7
370
    25
100
AcDbLine
 10
86.5625197043
 20
97.5617883844
 30
0.0
 11
83.6625197043
 21
97.5617883844
 31
0.0
  0
ARC
  5
CD
330
1F
100
AcDbEntity
  8
0
  6
Continuous
 62
     7
370
    25
100
AcDbCircle
 10
86.6625197043
 20
97.5617883844
 30
0.0
 40
0.1999999999999886
100
AcDbArc
 50
0.0
 51
90.0
  0
ARC
  5
CE
330
1F
100
AcDbEntity
  8
0
  6
Continuous
 62
     7
370
    25
100
AcDbCircle
 10
86.5625197043
 20
96.0617883844
 30
0.0
 40
0.1000000000000085
100
AcDbArc
 50
270.0
 51
0.0
  0
ARC
  5
CF
330
1F
100
AcDbEntity
  8
0
  6
Continuous
 62
     7
370
    25
100
AcDbCircle
 10
86.5625197043
 20
97.4617883844
 30
0.0
 40
0.1000000000000085
100
AcDbArc
 50
0.0
 51
90.0
  0
ARC
  5
D0
330
1F
100
AcDbEntity
  8
0
  6
Continuous
 62
     7
370
    25
100
AcDbCircle
 10
83.5625197043
 20
97.5617883844
 30
0.0
 40
0.2000000000000028
100
AcDbArc
 50
90.0
 51
180.0
  0
LINE
  5
D1
330
1F
100
AcDbEntity
  8
0
  6
Continuous
 62
     7
370
    25
100
AcDbLine
 10
83.3625197043
 20
97.5617883844
 30
0.0
 11
83.3625197043
 21
95.9617883844
 31
0.0
  0
ARC
  5
D2
330
1F
100
AcDbEntity
  8
0
  6
Continuous
 62
     7
370
    25
100
AcDbCircle
 10
83.5625197043
 20
95.9617883844
 30
0.0
 40
0.2000000000000028
100
AcDbArc
 50
180.0
 51
270.0
  0
LINE
  5
D3
330
1F
100
AcDbEntity
  8
0
  6
Continuous
 62
     7
370
    25
100
AcDbLine
 10
83.5625197043
 20
97.4617883844
 30
0.0
 11
83.5625197043
 21
96.0617883844
 31
0.0
  0
LINE
  5
D4
330
1F
100
AcDbEntity
  8
0
  6
Continuous
 62
     7
370
    25
100
AcDbLine
 10
83.6625197043
 20
95.9617883844
 30
0.0
 11
86.5625197043
 21
95.9617883844
 31
0.0
  0
ARC
  5
D5
330
1F
100
AcDbEntity
  8
0
  6
Continuous
 62
     7
370
    25
100
AcDbCircle
 10
83.6625197043
 20
96.0617883844
 30
0.0
 40
0.1000000000000085
100
AcDbArc
 50
180.0
 51
270.0
  0
LINE
  5
D6
330
1F
100
AcDbEntity
  8
0
  6
Continuous
 62
     7
370
    25
100
AcDbLine
 10
86.6625197043
 20
96.0617883844
 30
0.0
 11
86.6625197043
 21
97.4617883844
 31
0.0
  0
LINE
  5
D7
330
1F
100
AcDbEntity
  8
0
  6
Continuous
 62
     7
370
    25
100
AcDbLine
 10
53.1125197043
 20
53.8117883844
 30
0.0
 11
53.1125197043
 21
107.5117883844
 31
0.0
  0
LINE
  5
D8
330
1F
100
AcDbEntity
  8
0
  6
Continuous
 62
     7
370
    25
100
AcDbLine
 10
53.1125197043
 20
107.5117883844
 30
0.0
 11
117.1125197043
 21
107.5117883844
 31
0.0
  0
LINE
  5
D9
330
1F
100
AcDbEntity
  8
0
  6
Continuous
 62
     7
370
    25
100
AcDbLine
 10
117.1125197043
 20
107.5117883844
 30
0.0
 11
117.1125197043
 21
53.8117883844
 31
0.0
  0
LINE
  5
DA
330
1F
100
AcDbEntity
  8
0
  6
Continuous
 62
     7
370
    25
100
AcDbLine
 10
117.1125197043
 20
53.8117883844
 30
0.0
 11
53.1125197043
 21
53.8117883844
 31
0.0
  0
LINE
  5
DB
330
1F
100
AcDbEntity
  8
0
  6
Continuous
 62
     7
370
    25
100
AcDbLine
 10
53.1125197043
 20
108.2117883844
 30
0.0
 11
53.1125197043
 21
161.9117883844
 31
0.0
  0
LINE
  5
DC
330
1F
100
AcDbEntity
  8
0
  6
Continuous
 62
     7
370
    25
100
AcDbLine
 10
53.1125197043
 20
161.9117883844
 30
0.0
 11
117.1125197043
 21
161.9117883844
 31
0.0
  0
LINE
  5
DD
330
1F
100
AcDbEntity
  8
0
  6
Continuous
 62
     7
370
    25
100
AcDbLine
 10
117.1125197043
 20
161.9117883844
 30
0.0
 11
117.1125197043
 21
108.2117883844
 31
0.0
  0
LINE
  5
DE
330
1F
100
AcDbEntity
  8
0
  6
Continuous
 62
     7
370
    25
100
AcDbLine
 10
117.1125197043
 20
108.2117883844
 30
0.0
 11
53.1125197043
 21
108.2117883844
 31
0.0
  0
LINE
  5
DF
330
1F
100
AcDbEntity
  8
0
  6
Continuous
 62
     7
370
    25
100
AcDbLine
 10
117.1078917208
 20
108.2164163679
 30
0.0
 11
53.1171476879
 21
108.2164163679
 31
0.0
  0
LINE
  5
E0
330
1F
100
AcDbEntity
  8
0
  6
Continuous
 62
     7
370
    25
100
AcDbLine
 10
117.1078917208
 20
161.9071604008
 30
0.0
 11
117.1078917208
 21
108.2164163679
 31
0.0
  0
LINE
  5
E1
330
1F
100
AcDbEntity
  8
0
  6
Continuous
 62
     7
370
    25
100
AcDbLine
 10
53.1171476879
 20
161.9071604008
 30
0.0
 11
117.1078917208
 21
161.9071604008
 31
0.0
  0
LINE
  5
E2
330
1F
100
AcDbEntity
  8
0
  6
Continuous
 62
     7
370
    25
100
AcDbLine
 10
53.1171476879
 20
108.2164163679
 30
0.0
 11
53.1171476879
 21
161.9071604008
 31
0.0
  0
LINE
  5
E3
330
1F
100
AcDbEntity
  8
0
  6
Continuous
 62
     7
370
    25
100
AcDbLine
 10
117.4125197043
 20
107.9117883844
 30
0.0
 11
52.8125197043
 21
107.9117883844
 31
0.0
  0
LINE
  5
E4
330
1F
100
AcDbEntity
  8
0
  6
Continuous
 62
     7
370
    25
100
AcDbLine
 10
52.8125197043
 20
107.9117883844
 30
0.0
 11
52.8125197043
 21
162.2117883844
 31
0.0
  0
LINE
  5
E5
330
1F
100
AcDbEntity
  8
0
  6
Continuous
 62
     7
370
    25
100
AcDbLine
 10
52.8125197043
 20
162.2117883844
 30
0.0
 11
117.4125197043
 21
162.2117883844
 31
0.0
  0
LINE
  5
E6
330
1F
100
AcDbEntity
  8
0
  6
Continuous
 62
     7
370
    25
100
AcDbLine
 10
117.4125197043
 20
162.2117883844
 30
0.0
 11
117.4125197043
 21
107.9117883844
 31
0.0
  0
LINE
  5
E7
330
1F
100
AcDbEntity
  8
0
  6
Continuous
 62
     7
370
    25
100
AcDbLine
 10
117.1078917208
 20
107.5071604008
 30
0.0
 11
117.1078917208
 21
53.8164163679
 31
0.0
  0
LINE
  5
E8
330
1F
100
AcDbEntity
  8
0
  6
Continuous
 62
     7
370
    25
100
AcDbLine
 10
117.1078917208
 20
53.8164163679
 30
0.0
 11
53.1171476879
 21
53.8164163679
 31
0.0
  0
LINE
  5
E9
330
1F
100
AcDbEntity
  8
0
  6
Continuous
 62
     7
370
    25
100
AcDbLine
 10
53.1171476879
 20
107.5071604008
 30
0.0
 11
117.1078917208
 21
107.5071604008
 31
0.0
  0
LINE
  5
EA
330
1F
100
AcDbEntity
  8
0
  6
Continuous
 62
     7
370
    25
100
AcDbLine
 10
53.1171476879
 20
53.8164163679
 30
0.0
 11
53.1171476879
 21
107.5071604008
 31
0.0
  0
LINE
  5
EB
330
1F
100
AcDbEntity
  8
0
  6
Continuous
 62
     7
370
    25
100
AcDbLine
 10
117.4125197043
 20
53.5117883844
 30
0.0
 11
52.8125197043
 21
53.5117883844
 31
0.0
  0
LINE
  5
EC
330
1F
100
AcDbEntity
  8
0
  6
Continuous
 62
     7
370
    25
100
AcDbLine
 10
52.8125197043
 20
53.5117883844
 30
0.0
 11
52.8125197043
 21
107.8117883844
 31
0.0
  0
LINE
  5
ED
330
1F
100
AcDbEntity
  8
0
  6
Continuous
 62
     7
370
    25
100
AcDbLine
 10
52.8125197043
 20
107.8117883844
 30
0.0
 11
117.4125197043
 21
107.8117883844
 31
0.0
  0
LINE
  5
EE
330
1F
100
AcDbEntity
  8
0
  6
Continuous
 62
     7
370
    25
100
AcDbLine
 10
117.4125197043
 20
107.8117883844
 30
0.0
 11
117.4125197043
 21
53.5117883844
 31
0.0
  0
LINE
  5
EF
330
1F
100
AcDbEntity
  8
0
  6
Continuous
 62
     7
370
    25
100
AcDbLine
 10
142.0260455618
 20
140.9953915723
 30
0.0
 11
145.0260455618
 21
140.9953915723
 31
0.0
  0
LINE
  5
F0
330
1F
100
AcDbEntity
  8
0
  6
Continuous
 62
     7
370
    25
100
AcDbLine
 10
142.0260455618
 20
140.4953915723
 30
0.0
 11
145.0260455618
 21
140.4953915723
 31
0.0
  0
LINE
  5
F1
330
1F
100
AcDbEntity
  8
0
  6
Continuous
 62
     7
370
    25
100
AcDbLine
 10
145.0260455618
 20
140.9953915723
 30
0.0
 11
145.0260455618
 21
140.4953915723
 31
0.0
  0
LINE
  5
F2
330
1F
100
AcDbEntity
  8
0
  6
Continuous
 62
     7
370
    25
100
AcDbLine
 10
142.0260455618
 20
140.9953915723
 30
0.0
 11
142.0260455618
 21
140.4953915723
 31
0.0
  0
LINE
  5
F3
330
1F
100
AcDbEntity
  8
0
  6
Continuous
 62
     7
370
    25
100
AcDbLine
 10
145.0260455618
 20
74.7281851964
 30
0.0
 11
145.0260455618
 21
75.2281851964
 31
0.0
  0
LINE
  5
F4
330
1F
100
AcDbEntity
  8
0
  6
Continuous
 62
     7
370
    25
100
AcDbLine
 10
145.0260455618
 20
74.7281851964
 30
0.0
 11
142.0260455618
 21
74.7281851964
 31
0.0
  0
LINE
  5
F5
330
1F
100
AcDbEntity
  8
0
  6
Continuous
 62
     7
370
    25
100
AcDbLine
 10
142.0260455618
 20
74.7281851964
 30
0.0
 11
142.0260455618
 21
75.2281851964
 31
0.0
  0
LINE
  5
F6
330
1F
100
AcDbEntity
  8
0
  6
Continuous
 62
     7
370
    25
100
AcDbLine
 10
145.0260455618
 20
75.2281851964
 30
0.0
 11
142.0260455618
 21
75.2281851964
 31
0.0
  0
LINE
  5
F7
330
1F
100
AcDbEntity
  8
0
  6
Continuous
 62
     7
370
    25
100
AcDbLine
 10
146.0125197043
 20
141.6953915723
 30
0.0
 11
146.0125197043
 21
148.5617883844
 31
0.0
  0
LINE
  5
F8
330
1F
100
AcDbEntity
  8
0
  6
Continuous
 62
     7
370
    25
100
AcDbLine
 10
141.0125197043
 20
141.6953915723
 30
0.0
 11
141.0125197043
 21
148.5617883844
 31
0.0
  0
LINE
  5
F9
330
1F
100
AcDbEntity
  8
0
  6
Continuous
 62
     7
370
    25
100
AcDbLine
 10
146.0125197043
 20
140.9953915723
 30
0.0
 11
146.0125197043
 21
141.6953915723
 31
0.0
  0
LINE
  5
FA
330
1F
100
AcDbEntity
  8
0
  6
Continuous
 62
     7
370
    25
100
AcDbLine
 10
146.0125197043
 20
140.9953915723
 30
0.0
 11
145.0260455618
 21
140.9953915723
 31
0.0
  0
LINE
  5
FB
330
1F
100
AcDbEntity
  8
0
  6
Continuous
 62
     7
370
    25
100
AcDbLine
 10
142.0260455618
 20
140.9953915723
 30
0.0
 11
141.0125197043
 21
140.9953915723
 31
0.0
  0
LINE
  5
FC
330
1F
100
AcDbEntity
  8
0
  6
Continuous
 62
     7
370
    25
100
AcDbLine
 10
141.0125197043
 20
140.9953915723
 30
0.0
 11
141.0125197043
 21
141.6953915723
 31
0.0
  0
LINE
  5
FD
330
1F
100
AcDbEntity
  8
0
  6
Continuous
 62
     7
370
    25
100
AcDbLine
 10
141.0125197043
 20
74.0281851964
 30
0.0
 11
141.0125197043
 21
67.1617883844
 31
0.0
  0
LINE
  5
FE
330
1F
100
AcDbEntity
  8
0
  6
Continuous
 62
     7
370
    25
100
AcDbLine
 10
146.0125197043
 20
74.0281851964
 30
0.0
 11
146.0125197043
 21
67.1617883844
 31
0.0
  0
LINE
  5
FF
330
1F
100
AcDbEntity
  8
0
  6
Continuous
 62
     7
370
    25
100
AcDbLine
 10
141.0125197043
 20
74.7281851964
 30
0.0
 11
142.0260455618
 21
74.7281851964
 31
0.0
  0
LINE
  5
100
330
1F
100
AcDbEntity
  8
0
  6
Continuous
 62
     7
370
    25
100
AcDbLine
 10
145.0260455618
 20
74.7281851964
 30
0.0
 11
146.0125197043
 21
74.7281851964
 31
0.0
  0
LINE
  5
101
330
1F
100
AcDbEntity
  8
0
  6
Continuous
 62
     7
370
    25
100
AcDbLine
 10
146.0125197043
 20
74.7281851964
 30
0.0
 11
146.0125197043
 21
74.0281851964
 31
0.0
  0
LINE
  5
102
330
1F
100
AcDbEntity
  8
0
  6
Continuous
 62
     7
370
    25
100
AcDbLine
 10
141.0125197043
 20
74.7281851964
 30
0.0
 11
141.0125197043
 21
74.0281851964
 31
0.0
  0
LINE
  5
103
330
1F
100
AcDbEntity
  8
0
  6
Continuous
 62
     7
370
    25
100
AcDbLine
 10
125.5125197043
 20
53.6617883844
 30
0.0
 11
125.5125197043
 21
67.1617883844
 31
0.0
  0
LINE
  5
104
330
1F
100
AcDbEntity
  8
0
  6
Continuous
 62
     7
370
    25
100
AcDbLine
 10
118.5125197043
 20
67.1617883844
 30
0.0
 11
118.5125197043
 21
53.6617883844
 31
0.0
  0
LINE
  5
105
330
1F
100
AcDbEntity
  8
0
  6
Continuous
 62
     7
370
    25
100
AcDbLine
 10
125.5125197043
 20
67.1617883844
 30
0.0
 11
118.5125197043
 21
67.1617883844
 31
0.0
  0
LINE
  5
106
330
1F
100
AcDbEntity
  8
0
  6
Continuous
 62
     7
370
    25
100
AcDbLine
 10
118.5125197043
 20
53.6617883844
 30
0.0
 11
125.5125197043
 21
53.6617883844
 31
0.0
  0
CIRCLE
  5
107
330
1F
100
AcDbEntity
  8
0
  6
Continuous
 62
     7
370
    25
100
AcDbCircle
 10
169.5125197043
 20
63.1617883844
 30
0.0
 40
0.9999999999999929
  0
CIRCLE
  5
108
330
1F
100
AcDbEntity
  8
0
  6
Continuous
 62
     7
370
    25
100
AcDbCircle
 10
134.5125197043
 20
63.1617883844
 30
0.0
 40
0.9999999999999929
  0
CIRCLE
  5
109
330
1F
100
AcDbEntity
  8
0
  6
Continuous
 62
     7
370
    25
100
AcDbCircle
 10
169.5125197043
 20
57.6617883844
 30
0.0
 40
1.000000000000007
  0
LINE
  5
10A
330
1F
100
AcDbEntity
  8
0
  6
Continuous
 62
     7
370
    25
100
AcDbLine
 10
173.5125197043
 20
53.6617883844
 30
0.0
 11
173.5125197043
 21
67.1617883844
 31
0.0
  0
CIRCLE
  5
10B
330
1F
100
AcDbEntity
  8
0
  6
Continuous
 62
     7
370
    25
100
AcDbCircle
 10
134.5125197043
 20
57.6617883844
 30
0.0
 40
1.000000000000007
  0
LINE
  5
10C
330
1F
100
AcDbEntity
  8
0
  6
Continuous
 62
     7
370
    25
100
AcDbLine
 10
173.5125197043
 20
67.1617883844
 30
0.0
 11
125.5125197043
 21
67.1617883844
 31
0.0
  0
LINE
  5
10D
330
1F
100
AcDbEntity
  8
0
  6
Continuous
 62
     7
370
    25
100
AcDbLine
 10
125.5125197043
 20
53.6617883844
 30
0.0
 11
173.5125197043
 21
53.6617883844
 31
0.0
  0
LINE
  5
10E
330
1F
100
AcDbEntity
  8
0
  6
Continuous
 62
     7
370
    25
100
AcDbLine
 10
118.5125197043
 20
162.0617883844
 30
0.0
 11
118.5125197043
 21
148.5617883844
 31
0.0
  0
LINE
  5
10F
330
1F
100
AcDbEntity
  8
0
  6
Continuous
 62
     7
370
    25
100
AcDbLine
 10
125.5125197043
 20
162.0617883844
 30
0.0
 11
118.5125197043
 21
162.0617883844
 31
0.0
  0
LINE
  5
110
330
1F
100
AcDbEntity
  8
0
  6
Continuous
 62
     7
370
    25
100
AcDbLine
 10
118.5125197043
 20
148.5617883844
 30
0.0
 11
125.5125197043
 21
148.5617883844
 31
0.0
  0
LINE
  5
111
330
1F
100
AcDbEntity
  8
0
  6
Continuous
 62
     7
370
    25
100
AcDbLine
 10
125.5125197043
 20
148.5617883844
 30
0.0
 11
125.5125197043
 21
162.0617883844
 31
0.0
  0
CIRCLE
  5
112
330
1F
100
AcDbEntity
  8
0
  6
Continuous
 62
     7
370
    25
100
AcDbCircle
 10
134.5125197043
 20
158.0617883844
 30
0.0
 40
1.0
  0
CIRCLE
  5
113
330
1F
100
AcDbEntity
  8
0
  6
Continuous
 62
     7
370
    25
100
AcDbCircle
 10
169.5125197043
 20
158.0617883844
 30
0.0
 40
1.0
  0
LINE
  5
114
330
1F
100
AcDbEntity
  8
0
  6
Continuous
 62
     7
370
    25
100
AcDbLine
 10
173.5125197043
 20
148.5617883844
 30
0.0
 11
173.5125197043
 21
162.0617883844
 31
0.0
  0
CIRCLE
  5
115
330
1F
100
AcDbEntity
  8
0
  6
Continuous
 62
     7
370
    25
100
AcDbCircle
 10
169.5125197043
 20
152.5617883844
 30
0.0
 40
1.0
  0
CIRCLE
  5
116
330
1F
100
AcDbEntity
  8
0
  6
Continuous
 62
     7
370
    25
100
AcDbCircle
 10
134.5125197043
 20
152.5617883844
 30
0.0
 40
1.0
  0
LINE
  5
117
330
1F
100
AcDbEntity
  8
0
  6
Continuous
 62
     7
370
    25
100
AcDbLine
 10
173.5125197043
 20
162.0617883844
 30
0.0
 11
125.5125197043
 21
162.0617883844
 31
0.0
  0
LINE
  5
118
330
1F
100
AcDbEntity
  8
0
  6
Continuous
 62
     7
370
    25
100
AcDbLine
 10
125.5125197043
 20
148.5617883844
 30
0.0
 11
173.5125197043
 21
148.5617883844
 31
0.0
  0
LINE
  5
119
330
1F
100
AcDbEntity
  8
0
  6
Continuous
 62
     7
370
    25
100
AcDbLine
 10
117.5125197043
 20
161.8617883844
 30
0.0
 11
117.5125197043
 21
53.8617883844
 31
0.0
  0
LINE
  5
11A
330
1F
100
AcDbEntity
  8
0
  6
Continuous
 62
     7
370
    25
100
AcDbLine
 10
117.9125197043
 20
161.8617883844
 30
0.0
 11
117.5125197043
 21
161.8617883844
 31
0.0
  0
LINE
  5
11B
330
1F
100
AcDbEntity
  8
0
  6
Continuous
 62
     7
370
    25
100
AcDbLine
 10
117.9125197043
 20
53.8617883844
 30
0.0
 11
117.5125197043
 21
53.8617883844
 31
0.0
  0
LINE
  5
11C
330
1F
100
AcDbEntity
  8
0
  6
Continuous
 62
     7
370
    25
100
AcDbLine
 10
117.9125197043
 20
161.8617883844
 30
0.0
 11
117.9125197043
 21
53.8617883844
 31
0.0
  0
LINE
  5
11D
330
1F
100
AcDbEntity
  8
0
  6
Continuous
 62
     7
370
    25
100
AcDbLine
 10
109.6125197043
 20
107.9117883844
 30
0.0
 11
109.6125197043
 21
107.8117883844
 31
0.0
  0
LINE
  5
11E
330
1F
100
AcDbEntity
  8
0
  6
Continuous
 62
     7
370
    25
100
AcDbLine
 10
117.4125197043
 20
161.8617883844
 30
0.0
 11
117.5125197043
 21
161.8617883844
 31
0.0
  0
LINE
  5
11F
330
1F
100
AcDbEntity
  8
0
  6
Continuous
 62
     7
370
    25
100
AcDbLine
 10
117.4125197043
 20
53.8617883844
 30
0.0
 11
117.5125197043
 21
53.8617883844
 31
0.0
  0
LINE
  5
120
330
1F
100
AcDbEntity
  8
0
  6
Continuous
 62
     7
370
    25
100
AcDbLine
 10
105.6125197043
 20
107.9117883844
 30
0.0
 11
105.6125197043
 21
107.8117883844
 31
0.0
  0
LINE
  5
121
330
1F
100
AcDbEntity
  8
0
  6
Continuous
 62
     7
370
    25
100
AcDbLine
 10
105.0125197043
 20
162.3617883844
 30
0.0
 11
105.0125197043
 21
162.2117883844
 31
0.0
  0
LINE
  5
122
330
1F
100
AcDbEntity
  8
0
  6
Continuous
 62
     7
370
    25
100
AcDbLine
 10
105.5125197043
 20
162.3617883844
 30
0.0
 11
105.5125197043
 21
162.2117883844
 31
0.0
  0
LINE
  5
123
330
1F
100
AcDbEntity
  8
0
  6
Continuous
 62
     7
370
    25
100
AcDbLine
 10
109.7125197043
 20
162.3617883844
 30
0.0
 11
109.7125197043
 21
162.2117883844
 31
0.0
  0
LINE
  5
124
330
1F
100
AcDbEntity
  8
0
  6
Continuous
 62
     7
370
    25
100
AcDbLine
 10
110.2125197043
 20
162.3617883844
 30
0.0
 11
110.2125197043
 21
162.2117883844
 31
0.0
  0
LINE
  5
125
330
1F
100
AcDbEntity
  8
0
  6
Continuous
 62
     7
370
    25
100
AcDbLine
 10
105.0125197043
 20
53.5117883844
 30
0.0
 11
105.0125197043
 21
53.3617883844
 31
0.0
  0
LINE
  5
126
330
1F
100
AcDbEntity
  8
0
  6
Continuous
 62
     7
370
    25
100
AcDbLine
 10
105.5125197043
 20
53.5117883844
 30
0.0
 11
105.5125197043
 21
53.3617883844
 31
0.0
  0
LINE
  5
127
330
1F
100
AcDbEntity
  8
0
  6
Continuous
 62
     7
370
    25
100
AcDbLine
 10
110.2125197043
 20
53.5117883844
 30
0.0
 11
110.2125197043
 21
53.3617883844
 31
0.0
  0
LINE
  5
128
330
1F
100
AcDbEntity
  8
0
  6
Continuous
 62
     7
370
    25
100
AcDbLine
 10
109.7125197043
 20
53.5117883844
 30
0.0
 11
109.7125197043
 21
53.3617883844
 31
0.0
  0
LINE
  5
129
330
1F
100
AcDbEntity
  8
0
  6
Continuous
 62
     7
370
    25
100
AcDbLine
 10
128.1125197043
 20
162.3617883844
 30
0.0
 11
128.1125197043
 21
162.7617883844
 31
0.0
  0
LINE
  5
12A
330
1F
100
AcDbEntity
  8
0
  6
Continuous
 62
     7
370
    25
100
AcDbLine
 10
128.1125197043
 20
162.3617883844
 30
0.0
 11
52.7125197043
 21
162.3617883844
 31
0.0
  0
LINE
  5
12B
330
1F
100
AcDbEntity
  8
0
  6
Continuous
 62
     7
370
    25
100
AcDbLine
 10
52.7125197043
 20
162.3617883844
 30
0.0
 11
52.7125197043
 21
162.7617883844
 31
0.0
  0
LINE
  5
12C
330
1F
100
AcDbEntity
  8
0
  6
Continuous
 62
     7
370
    25
100
AcDbLine
 10
128.1125197043
 20
162.7617883844
 30
0.0
 11
52.7125197043
 21
162.7617883844
 31
0.0
  0
LINE
  5
12D
330
1F
100
AcDbEntity
  8
0
  6
Continuous
 62
     7
370
    25
100
AcDbLine
 10
103.1125197043
 20
162.3617883844
 30
0.0
 11
103.1125197043
 21
162.2117883844
 31
0.0
  0
LINE
  5
12E
330
1F
100
AcDbEntity
  8
0
  6
Continuous
 62
     7
370
    25
100
AcDbLine
 10
128.1125197043
 20
53.3617883844
 30
0.0
 11
52.7125197043
 21
53.3617883844
 31
0.0
  0
LINE
  5
12F
330
1F
100
AcDbEntity
  8
0
  6
Continuous
 62
     7
370
    25
100
AcDbLine
 10
128.1125197043
 20
53.3617883844
 30
0.0
 11
128.1125197043
 21
52.9617883844
 31
0.0
  0
LINE
  5
130
330
1F
100
AcDbEntity
  8
0
  6
Continuous
 62
     7
370
    25
100
AcDbLine
 10
128.1125197043
 20
52.9617883844
 30
0.0
 11
52.7125197043
 21
52.9617883844
 31
0.0
  0
LINE
  5
131
330
1F
100
AcDbEntity
  8
0
  6
Continuous
 62
     7
370
    25
100
AcDbLine
 10
52.7125197043
 20
53.3617883844
 30
0.0
 11
52.7125197043
 21
52.9617883844
 31
0.0
  0
LINE
  5
132
330
1F
100
AcDbEntity
  8
0
  6
Continuous
 62
     7
370
    25
100
AcDbLine
 10
103.1125197043
 20
53.3617883844
 30
0.0
 11
103.1125197043
 21
53.5117883844
 31
0.0
  0
LINE
  5
133
330
1F
100
AcDbEntity
  8
0
  6
Continuous
 62
     7
370
    25
100
AcDbLine
 10
62.2125197043
 20
53.5117883844
 30
0.0
 11
62.2125197043
 21
53.3617883844
 31
0.0
  0
LINE
  5
134
330
1F
100
AcDbEntity
  8
0
  6
Continuous
 62
     7
370
    25
100
AcDbLine
 10
52.3125197043
 20
52.9617883844
 30
0.0
 11
52.7125197043
 21
52.9617883844
 31
0.0
  0
LINE
  5
135
330
1F
100
AcDbEntity
  8
0
  6
Continuous
 62
     7
370
    25
100
AcDbLine
 10
52.3125197043
 20
162.7617883844
 30
0.0
 11
52.7125197043
 21
162.7617883844
 31
0.0
  0
LINE
  5
136
330
1F
100
AcDbEntity
  8
0
  6
Continuous
 62
     7
370
    25
100
AcDbLine
 10
52.7125197043
 20
52.9617883844
 30
0.0
 11
52.7125197043
 21
162.7617883844
 31
0.0
  0
LINE
  5
137
330
1F
100
AcDbEntity
  8
0
  6
Continuous
 62
     7
370
    25
100
AcDbLine
 10
52.3125197043
 20
52.9617883844
 30
0.0
 11
52.3125197043
 21
162.7617883844
 31
0.0
  0
LINE
  5
138
330
1F
100
AcDbEntity
  8
0
  6
Continuous
 62
     7
370
    25
100
AcDbLine
 10
62.2125197043
 20
162.2117883844
 30
0.0
 11
62.2125197043
 21
162.3617883844
 31
0.0
  0
LINE
  5
139
330
1F
100
AcDbEntity
  8
0
  6
Continuous
 62
     7
370
    25
100
AcDbLine
 10
62.2125197043
 20
107.8117883844
 30
0.0
 11
62.2125197043
 21
107.9117883844
 31
0.0
  0
LINE
  5
13A
330
1F
100
AcDbEntity
  8
0
  6
Continuous
 62
     7
370
    25
100
AcDbLine
 10
62.5125197043
 20
107.9117883844
 30
0.0
 11
62.5125197043
 21
107.8117883844
 31
0.0
  0
LINE
  5
13B
330
1F
100
AcDbEntity
  8
0
  6
Continuous
 62
     7
370
    25
100
AcDbLine
 10
173.5125197043
 20
148.5617883844
 30
0.0
 11
173.5125197043
 21
67.1617883844
 31
0.0
  0
LINE
  5
13C
330
1F
100
AcDbEntity
  8
0
  6
Continuous
 62
     7
370
    25
100
AcDbLine
 10
164.9314599825
 20
148.5617883844
 30
0.0
 11
164.9314599825
 21
67.1617883844
 31
0.0
  0
CIRCLE
  5
13D
330
1F
100
AcDbEntity
  8
0
  6
Continuous
 62
     7
370
    25
100
AcDbCircle
 10
169.0125197043
 20
73.6617883844
 30
0.0
 40
0.5999999999999943
  0
CIRCLE
  5
13E
330
1F
100
AcDbEntity
  8
0
  6
Continuous
 62
     7
370
    25
100
AcDbCircle
 10
169.0125197043
 20
142.0617883844
 30
0.0
 40
0.5999999999999943
  0
LINE
  5
13F
330
1F
100
AcDbEntity
  8
0
  6
Continuous
 62
     7
370
    25
100
AcDbLine
 10
117.9125197043
 20
153.4807286626
 30
0.0
 11
118.5125197043
 21
153.4807286626
 31
0.0
  0
LINE
  5
140
330
1F
100
AcDbEntity
  8
0
  6
Continuous
 62
     7
370
    25
100
AcDbLine
 10
134.118122994
 20
153.4807286626
 30
0.0
 11
134.9069164147
 21
153.4807286626
 31
0.0
  0
LINE
  5
141
330
1F
100
AcDbEntity
  8
0
  6
Continuous
 62
     7
370
    25
100
AcDbLine
 10
117.4125197043
 20
162.0617883844
 30
0.0
 11
118.5125197043
 21
162.0617883844
 31
0.0
  0
LINE
  5
142
330
1F
100
AcDbEntity
  8
0
  6
Continuous
 62
     7
370
    25
100
AcDbLine
 10
134.9069164147
 20
62.2428481062
 30
0.0
 11
134.118122994
 21
62.2428481062
 31
0.0
  0
LINE
  5
143
330
1F
100
AcDbEntity
  8
0
  6
Continuous
 62
     7
370
    25
100
AcDbLine
 10
118.5125197043
 20
62.2428481062
 30
0.0
 11
117.9125197043
 21
62.2428481062
 31
0.0
  0
LINE
  5
144
330
1F
100
AcDbEntity
  8
0
  6
Continuous
 62
     7
370
    25
100
AcDbLine
 10
117.4125197043
 20
53.6617883844
 30
0.0
 11
118.5125197043
 21
53.6617883844
 31
0.0
  0
LINE
  5
145
330
1F
100
AcDbEntity
  8
0
  6
PHANTOM
 62
     1
370
    18
100
AcDbLine
 10
146.0125197043
 20
141.6953915723
 30
0.0
 11
141.0125197043
 21
141.6953915723
 31
0.0
  0
LINE
  5
146
330
1F
100
AcDbEntity
  8
0
  6
PHANTOM
 62
     1
370
    18
100
AcDbLine
 10
141.0125197043
 20
74.0281851964
 30
0.0
 11
146.0125197043
 21
74.0281851964
 31
0.0
  0
LINE
  5
147
330
1F
100
AcDbEntity
  8
0
  6
PHANTOM
 62
     1
370
    18
100
AcDbLine
 10
106.1125197043
 20
107.9117883844
 30
0.0
 11
106.1125197043
 21
107.8117883844
 31
0.0
  0
LINE
  5
148
330
1F
100
AcDbEntity
  8
0
  6
PHANTOM
 62
     1
370
    18
100
AcDbLine
 10
109.1125197043
 20
107.9117883844
 30
0.0
 11
109.1125197043
 21
107.8117883844
 31
0.0
  0
LINE
  5
149
330
1F
100
AcDbEntity
  8
0
  6
PHANTOM
 62
     1
370
    18
100
AcDbLine
 10
53.0125197043
 20
53.3617883844
 30
0.0
 11
53.0125197043
 21
53.5117883844
 31
0.0
  0
LINE
  5
14A
330
1F
100
AcDbEntity
  8
0
  6
PHANTOM
 62
     1
370
    18
100
AcDbLine
 10
53.0125197043
 20
107.8117883844
 30
0.0
 11
53.0125197043
 21
107.9117883844
 31
0.0
  0
LINE
  5
14B
330
1F
100
AcDbEntity
  8
0
  6
PHANTOM
 62
     1
370
    18
100
AcDbLine
 10
53.0125197043
 20
162.2117883844
 30
0.0
 11
53.0125197043
 21
162.3617883844
 31
0.0
  0
LINE
  5
14C
330
1F
100
AcDbEntity
  8
0
  6
PHANTOM
 62
     7
370
    35
100
AcDbLine
 10
188.0565197043
 20
107.8617883844
 30
0.0
 11
37.7685197043
 21
107.8617883844
 31
0.0
  0
LINE
  5
14D
330
1F
100
AcDbEntity
  8
0
  6
Continuous
 62
     7
370
    35
100
AcDbLine
 10
186.0565197043
 20
95.8617883844
 30
0.0
 11
186.0565197043
 21
107.8617883844
 31
0.0
  0
SOLID
  5
14E
330
1F
100
AcDbEntity
  8
0
  6
Continuous
 62
     7
370
    35
100
AcDbTrace
 10
186.0565197043
 20
107.8617883844
 30
0.0
 11
184.5565197043
 21
101.8617883844
 31
0.0
 12
187.5565197043
 22
101.8617883844
 32
0.0
 13
187.5565197043
 23
101.8617883844
 33
0.0
  0
LINE
  5
14F
330
1F
100
AcDbEntity
  8
0
  6
Continuous
 62
     7
370
    35
100
AcDbLine
 10
39.7685197043
 20
95.8617883844
 30
0.0
 11
39.7685197043
 21
107.8617883844
 31
0.0
  0
SOLID
  5
150
330
1F
100
AcDbEntity
  8
0
  6
Continuous
 62
     7
370
    35
100
AcDbTrace
 10
39.7685197043
 20
107.8617883844
 30
0.0
 11
38.2685197043
 21
101.8617883844
 31
0.0
 12
41.2685197043
 22
101.8617883844
 32
0.0
 13
41.2685197043
 23
101.8617883844
 33
0.0
  0
MTEXT
  5
152
330
1F
100
AcDbEntity
  8
0
  6
Continuous
 62
     7
100
AcDbMText
 10
188.5607694192
 20
105.9457905808
 30
0.0
 40
6.35
 41
0.0
 46
0.0
 71
     1
 72
     1
  1
A
  7
SLDTEXTSTYLE0
 73
     1
 44
1.0
  0
MTEXT
  5
153
330
1F
100
AcDbEntity
  8
0
  6
Continuous
 62
     7
100
AcDbMText
 10
31.0036457022
 20
105.9457905808
 30
0.0
 40
6.35
 41
0.0
 46
0.0
 71
     1
 72
     1
  1
A
  7
SLDTEXTSTYLE0
 73
     1
 44
1.0
  0
LINE
  5
154
330
1F
100
AcDbEntity
  8
0
  6
PHANTOM
 62
     7
370
    35
100
AcDbLine
 10
118.5125197043
 20
175.9377883844
 30
0.0
 11
118.5125197043
 21
39.7857883844
 31
0.0
  0
LINE
  5
155
330
1F
100
AcDbEntity
  8
0
  6
Continuous
 62
     7
370
    35
100
AcDbLine
 10
106.5125197043
 20
173.9377883844
 30
0.0
 11
118.5125197043
 21
173.9377883844
 31
0.0
  0
SOLID
  5
156
330
1F
100
AcDbEntity
  8
0
  6
Continuous
 62
     7
370
    35
100
AcDbTrace
 10
118.5125197043
 20
173.9377883844
 30
0.0
 11
112.5125197043
 21
175.4377883844
 31
0.0
 12
112.5125197043
 22
172.4377883844
 32
0.0
 13
112.5125197043
 23
172.4377883844
 33
0.0
  0
LINE
  5
157
330
1F
100
AcDbEntity
  8
0
  6
Continuous
 62
     7
370
    35
100
AcDbLine
 10
106.5125197043
 20
41.7857883844
 30
0.0
 11
118.5125197043
 21
41.7857883844
 31
0.0
  0
SOLID
  5
158
330
1F
100
AcDbEntity
  8
0
  6
Continuous
 62
     7
370
    35
100
AcDbTrace
 10
118.5125197043
 20
41.7857883844
 30
0.0
 11
112.5125197043
 21
43.2857883844
 31
0.0
 12
112.5125197043
 22
40.2857883844
 32
0.0
 13
112.5125197043
 23
40.2857883844
 33
0.0
  0
MTEXT
  5
159
330
1F
100
AcDbEntity
  8
0
  6
Continuous
 62
     7
100
AcDbMText
 10
106.5125197043
 20
184.0217905808
 30
0.0
 40
6.35
 41
0.0
 46
0.0
 71
     1
 72
     1
  1
B
  7
SLDTEXTSTYLE0
 73
     1
 44
1.0
  0
MTEXT
  5
15A
330
1F
100
AcDbEntity
  8
0
  6
Continuous
 62
     7
100
AcDbMText
 10
106.5125197043
 20
38.427815653
 30
0.0
 40
6.35
 41
0.0
 46
0.0
 71
     1
 72
     1
  1
B
  7
SLDTEXTSTYLE0
 73
     1
 44
1.0
  0
LINE
  5
15B
330
1F
100
AcDbEntity
  8
0
  6
Continuous
 62
     7
370
    25
100
AcDbLine
 10
54.0468085693
 20
403.9181558606
 30
0.0
 11
53.9939104751
 21
404.2181558606
 31
0.0
  0
LINE
  5
15C
330
1F
100
AcDbEntity
  8
0
  6
Continuous
 62
     7
370
    25
100
AcDbLine
 10
145.0260455618
 20
390.5181558606
 30
0.0
 11
145.0260455618
 21
391.3872027002
 31
0.0
  0
LINE
  5
15D
330
1F
100
AcDbEntity
  8
0
  6
Continuous
 62
     7
370
    25
100
AcDbLine
 10
145.0260455618
 20
391.3872027002
 30
0.0
 11
142.0260455618
 21
391.3872027002
 31
0.0
  0
LINE
  5
15E
330
1F
100
AcDbEntity
  8
0
  6
Continuous
 62
     7
370
    25
100
AcDbLine
 10
142.0260455618
 20
391.3872027002
 30
0.0
 11
142.0260455618
 21
390.5181558606
 31
0.0
  0
ARC
  5
15F
330
1F
100
AcDbEntity
  8
0
  6
Continuous
 62
     7
370
    25
100
AcDbCircle
 10
143.5260455618
 20
390.0372027002
 30
0.0
 40
0.650000000000014
100
AcDbArc
 50
47.7252774542
 51
132.2747225458
  0
LINE
  5
160
330
1F
100
AcDbEntity
  8
0
  6
Continuous
 62
     7
370
    25
100
AcDbLine
 10
128.1125197043
 20
383.5181558606
 30
0.0
 11
173.5125197043
 21
383.5181558606
 31
0.0
  0
LINE
  5
161
330
1F
100
AcDbEntity
  8
0
  6
Continuous
 62
     7
370
    25
100
AcDbLine
 10
173.5125197043
 20
390.5181558606
 30
0.0
 11
173.5125197043
 21
383.5181558606
 31
0.0
  0
LINE
  5
162
330
1F
100
AcDbEntity
  8
0
  6
Continuous
 62
     7
370
    25
100
AcDbLine
 10
128.1125197043
 20
390.5181558606
 30
0.0
 11
173.5125197043
 21
390.5181558606
 31
0.0
  0
LINE
  5
163
330
1F
100
AcDbEntity
  8
0
  6
Continuous
 62
     7
370
    25
100
AcDbLine
 10
128.1125197043
 20
410.9181558606
 30
0.0
 11
52.7125197043
 21
410.9181558606
 31
0.0
  0
LINE
  5
164
330
1F
100
AcDbEntity
  8
0
  6
Continuous
 62
     7
370
    25
100
AcDbLine
 10
128.1125197043
 20
377.9181558606
 30
0.0
 11
128.1125197043
 21
410.9181558606
 31
0.0
  0
LINE
  5
165
330
1F
100
AcDbEntity
  8
0
  6
Continuous
 62
     7
370
    25
100
AcDbLine
 10
103.1125197043
 20
377.9181558606
 30
0.0
 11
128.1125197043
 21
377.9181558606
 31
0.0
  0
LINE
  5
166
330
1F
100
AcDbEntity
  8
0
  6
Continuous
 62
     7
370
    25
100
AcDbLine
 10
103.1125197043
 20
403.9181558606
 30
0.0
 11
103.1125197043
 21
377.9181558606
 31
0.0
  0
ARC
  5
167
330
1F
100
AcDbEntity
  8
0
  6
Continuous
 62
     7
370
    25
100
AcDbCircle
 10
103.1725197043
 20
404.3381558606
 30
0.0
 40
0.0600000000000023
100
AcDbArc
 50
0.0
 51
180.0
  0
LINE
  5
168
330
1F
100
AcDbEntity
  8
0
  6
Continuous
 62
     7
370
    25
100
AcDbLine
 10
52.7125197043
 20
404.2181558606
 30
0.0
 11
62.2125197043
 21
404.2181558606
 31
0.0
  0
LINE
  5
169
330
1F
100
AcDbEntity
  8
0
  6
Continuous
 62
     7
370
    25
100
AcDbLine
 10
103.1125197043
 20
404.3381558606
 30
0.0
 11
103.1125197043
 21
404.2181558606
 31
0.0
  0
LINE
  5
16A
330
1F
100
AcDbEntity
  8
0
  6
Continuous
 62
     7
370
    25
100
AcDbLine
 10
52.7125197043
 20
410.9181558606
 30
0.0
 11
52.7125197043
 21
404.2181558606
 31
0.0
  0
LINE
  5
16B
330
1F
100
AcDbEntity
  8
0
  6
Continuous
 62
     7
370
    25
100
AcDbLine
 10
103.1125197043
 20
403.9181558606
 30
0.0
 11
103.2325197043
 21
403.9181558606
 31
0.0
  0
LINE
  5
16C
330
1F
100
AcDbEntity
  8
0
  6
Continuous
 62
     7
370
    25
100
AcDbLine
 10
103.2325197043
 20
403.9181558606
 30
0.0
 11
103.2325197043
 21
404.3381558606
 31
0.0
  0
LINE
  5
16D
330
1F
100
AcDbEntity
  8
0
  6
Continuous
 62
     7
370
    25
100
AcDbLine
 10
62.2125197043
 20
403.5181558606
 30
0.0
 11
103.1125197043
 21
403.5181558606
 31
0.0
  0
LINE
  5
16E
330
1F
100
AcDbEntity
  8
0
  6
Continuous
 62
     7
370
    25
100
AcDbLine
 10
62.2125197043
 20
403.9181558606
 30
0.0
 11
62.2125197043
 21
404.2181558606
 31
0.0
  0
LINE
  5
16F
330
1F
100
AcDbEntity
  8
0
  6
Continuous
 62
     7
370
    25
100
AcDbLine
 10
103.1125197043
 20
404.2181558606
 30
0.0
 11
103.1125197043
 21
403.9181558606
 31
0.0
  0
LINE
  5
170
330
1F
100
AcDbEntity
  8
0
  6
Continuous
 62
     7
370
    25
100
AcDbLine
 10
62.2125197043
 20
403.5181558606
 30
0.0
 11
62.2125197043
 21
403.9181558606
 31
0.0
  0
LINE
  5
171
330
1F
100
AcDbEntity
  8
0
  6
Continuous
 62
     7
370
    25
100
AcDbLine
 10
53.0125197043
 20
403.5181558606
 30
0.0
 11
62.2125197043
 21
403.5181558606
 31
0.0
  0
LINE
  5
172
330
1F
100
AcDbEntity
  8
0
  6
Continuous
 62
     7
370
    25
100
AcDbLine
 10
53.0125197043
 20
403.9181558606
 30
0.0
 11
62.2125197043
 21
403.9181558606
 31
0.0
  0
LINE
  5
173
330
1F
100
AcDbEntity
  8
0
  6
Continuous
 62
     7
370
    25
100
AcDbLine
 10
52.3125197043
 20
404.2181558606
 30
0.0
 11
52.3125197043
 21
410.9181558606
 31
0.0
  0
LINE
  5
174
330
1F
100
AcDbEntity
  8
0
  6
Continuous
 62
     7
370
    25
100
AcDbLine
 10
52.3125197043
 20
410.9181558606
 30
0.0
 11
52.7125197043
 21
410.9181558606
 31
0.0
  0
ARC
  5
175
330
1F
100
AcDbEntity
  8
0
  6
Continuous
 62
     7
370
    25
100
AcDbCircle
 10
53.0125197043
 20
404.2181558606
 30
0.0
 40
0.7000000000000028
100
AcDbArc
 50
180.0
 51
270.0
  0
ARC
  5
176
330
1F
100
AcDbEntity
  8
0
  6
Continuous
 62
     7
370
    25
100
AcDbCircle
 10
53.0125197043
 20
404.2181558606
 30
0.0
 40
0.3000000000000114
100
AcDbArc
 50
180.0
 51
270.0
  0
LINE
  5
177
330
1F
100
AcDbEntity
  8
0
  6
Continuous
 62
     7
370
    25
100
AcDbLine
 10
173.5125197043
 20
383.5181558606
 30
0.0
 11
173.5125197043
 21
311.5181558606
 31
0.0
  0
LINE
  5
178
330
1F
100
AcDbEntity
  8
0
  6
Continuous
 62
     7
370
    25
100
AcDbLine
 10
53.5125197043
 20
403.5181558606
 30
0.0
 11
53.5125197043
 21
311.5181558606
 31
0.0
  0
LINE
  5
179
330
1F
100
AcDbEntity
  8
0
  6
Continuous
 62
     7
370
    25
100
AcDbLine
 10
53.5125197043
 20
311.5181558606
 30
0.0
 11
173.5125197043
 21
311.5181558606
 31
0.0
  0
LINE
  5
17A
330
1F
100
AcDbEntity
  8
0
  6
PHANTOM
 62
     1
370
    18
100
AcDbLine
 10
62.2125197043
 20
404.2181558606
 30
0.0
 11
103.1125197043
 21
404.2181558606
 31
0.0
  0
LINE
  5
17B
330
1F
100
AcDbEntity
  8
0
  6
PHANTOM
 62
     1
370
    18
100
AcDbLine
 10
53.0125197043
 20
403.9181558606
 30
0.0
 11
53.0125197043
 21
403.5181558606
 31
0.0
  0
LINE
  5
17C
330
1F
100
AcDbEntity
  8
0
  6
PHANTOM
 62
     1
370
    18
100
AcDbLine
 10
52.7125197043
 20
404.2181558606
 30
0.0
 11
52.3125197043
 21
404.2181558606
 31
0.0
  0
LINE
  5
17D
330
1F
100
AcDbEntity
  8
0
  6
Continuous
 62
     7
370
    25
100
AcDbLine
 10
538.6632694403
 20
162.3617883844
 30
0.0
 11
538.6632694403
 21
162.0617883844
 31
0.0
  0
LINE
  5
17E
330
1F
100
AcDbEntity
  8
0
  6
Continuous
 62
     7
370
    25
100
AcDbLine
 10
545.6632694403
 20
162.3617883844
 30
0.0
 11
545.6632694403
 21
162.0617883844
 31
0.0
  0
LINE
  5
17F
330
1F
100
AcDbEntity
  8
0
  6
Continuous
 62
     7
370
    25
100
AcDbLine
 10
538.6632694403
 20
53.6617883844
 30
0.0
 11
538.6632694403
 21
53.3617883844
 31
0.0
  0
LINE
  5
180
330
1F
100
AcDbEntity
  8
0
  6
Continuous
 62
     7
370
    25
100
AcDbLine
 10
545.6632694403
 20
53.6617883844
 30
0.0
 11
545.6632694403
 21
53.3617883844
 31
0.0
  0
ARC
  5
181
330
1F
100
AcDbEntity
  8
0
  6
Continuous
 62
     7
370
    25
100
AcDbCircle
 10
546.9632694403
 20
162.0617883844
 30
0.0
 40
0.3000000000001819
100
AcDbArc
 50
131.8103148957
 51
180.0
  0
ARC
  5
182
330
1F
100
AcDbEntity
  8
0
  6
Continuous
 62
     7
370
    25
100
AcDbCircle
 10
546.9632694403
 20
162.0617883844
 30
0.0
 40
0.7000000000000455
100
AcDbArc
 50
106.601549599
 51
180.0
  0
LINE
  5
183
330
1F
100
AcDbEntity
  8
0
  6
Continuous
 62
     7
370
    25
100
AcDbLine
 10
546.6632694403
 20
162.6942439164
 30
0.0
 11
546.6632694403
 21
162.7617883844
 31
0.0
  0
LINE
  5
184
330
1F
100
AcDbEntity
  8
0
  6
Continuous
 62
     7
370
    25
100
AcDbLine
 10
521.1632694403
 20
162.3617883844
 30
0.0
 11
521.1632694403
 21
162.7617883844
 31
0.0
  0
LINE
  5
185
330
1F
100
AcDbEntity
  8
0
  6
Continuous
 62
     7
370
    25
100
AcDbLine
 10
546.6632694403
 20
162.7617883844
 30
0.0
 11
521.1632694403
 21
162.7617883844
 31
0.0
  0
LINE
  5
186
330
1F
100
AcDbEntity
  8
0
  6
Continuous
 62
     7
370
    25
100
AcDbLine
 10
546.3308139083
 20
162.3617883844
 30
0.0
 11
521.1632694403
 21
162.3617883844
 31
0.0
  0
LINE
  5
187
330
1F
100
AcDbEntity
  8
0
  6
Continuous
 62
     7
370
    25
100
AcDbLine
 10
546.6632694403
 20
162.7617883844
 30
0.0
 11
546.7632694403
 21
162.7617883844
 31
0.0
  0
LINE
  5
188
330
1F
100
AcDbEntity
  8
0
  6
Continuous
 62
     7
370
    25
100
AcDbLine
 10
521.1632694403
 20
53.3617883844
 30
0.0
 11
521.1632694403
 21
52.9617883844
 31
0.0
  0
LINE
  5
189
330
1F
100
AcDbEntity
  8
0
  6
Continuous
 62
     7
370
    25
100
AcDbLine
 10
546.7632694403
 20
53.3617883844
 30
0.0
 11
521.1632694403
 21
53.3617883844
 31
0.0
  0
LINE
  5
18A
330
1F
100
AcDbEntity
  8
0
  6
Continuous
 62
     7
370
    25
100
AcDbLine
 10
546.7632694403
 20
52.9617883844
 30
0.0
 11
521.1632694403
 21
52.9617883844
 31
0.0
  0
LINE
  5
18B
330
1F
100
AcDbEntity
  8
0
  6
Continuous
 62
     7
370
    25
100
AcDbLine
 10
546.7632694403
 20
162.7617883844
 30
0.0
 11
547.4632694403
 21
162.7617883844
 31
0.0
  0
LINE
  5
18C
330
1F
100
AcDbEntity
  8
0
  6
Continuous
 62
     7
370
    25
100
AcDbLine
 10
547.4632694403
 20
52.9617883844
 30
0.0
 11
546.7632694403
 21
52.9617883844
 31
0.0
  0
LINE
  5
18D
330
1F
100
AcDbEntity
  8
0
  6
Continuous
 62
     7
370
    25
100
AcDbLine
 10
546.7632694403
 20
52.9617883844
 30
0.0
 11
546.7632694403
 21
162.7617883844
 31
0.0
  0
LINE
  5
18E
330
1F
100
AcDbEntity
  8
0
  6
Continuous
 62
     7
370
    25
100
AcDbLine
 10
554.1632694403
 20
162.7617883844
 30
0.0
 11
547.4632694403
 21
162.7617883844
 31
0.0
  0
LINE
  5
18F
330
1F
100
AcDbEntity
  8
0
  6
Continuous
 62
     7
370
    25
100
AcDbLine
 10
554.1632694403
 20
52.9617883844
 30
0.0
 11
554.1632694403
 21
162.7617883844
 31
0.0
  0
LINE
  5
190
330
1F
100
AcDbEntity
  8
0
  6
Continuous
 62
     7
370
    25
100
AcDbLine
 10
547.4632694403
 20
52.9617883844
 30
0.0
 11
554.1632694403
 21
52.9617883844
 31
0.0
  0
LINE
  5
191
330
1F
100
AcDbEntity
  8
0
  6
Continuous
 62
     7
370
    25
100
AcDbLine
 10
546.7632694403
 20
162.0617883844
 30
0.0
 11
454.7632694403
 21
162.0617883844
 31
0.0
  0
LINE
  5
192
330
1F
100
AcDbEntity
  8
0
  6
Continuous
 62
     7
370
    25
100
AcDbLine
 10
546.7632694403
 20
53.6617883844
 30
0.0
 11
454.7632694403
 21
53.6617883844
 31
0.0
  0
LINE
  5
193
330
1F
100
AcDbEntity
  8
0
  6
Continuous
 62
     7
370
    25
100
AcDbLine
 10
454.7632694403
 20
162.0617883844
 30
0.0
 11
454.7632694403
 21
53.6617883844
 31
0.0
  0
LINE
  5
194
330
1F
100
AcDbEntity
  8
0
  6
PHANTOM
 62
     1
370
    18
100
AcDbLine
 10
547.4632694403
 20
52.9617883844
 30
0.0
 11
547.4632694403
 21
162.7617883844
 31
0.0
  0
LINE
  5
195
330
1F
100
AcDbEntity
  8
0
  6
Continuous
 62
     7
370
    25
100
AcDbLine
 10
117.9125197043
 20
279.5619826822
 30
0.0
 11
109.6125197043
 21
279.5619826822
 31
0.0
  0
LINE
  5
196
330
1F
100
AcDbEntity
  8
0
  6
Continuous
 62
     7
370
    25
100
AcDbLine
 10
109.6125197043
 20
279.5619826822
 30
0.0
 11
109.6125197043
 21
279.9619826822
 31
0.0
  0
LINE
  5
197
330
1F
100
AcDbEntity
  8
0
  6
Continuous
 62
     7
370
    25
100
AcDbLine
 10
117.5125197043
 20
279.9619826822
 30
0.0
 11
109.6125197043
 21
279.9619826822
 31
0.0
  0
LINE
  5
198
330
1F
100
AcDbEntity
  8
0
  6
Continuous
 62
     7
370
    25
100
AcDbLine
 10
117.5125197043
 20
286.9619826822
 30
0.0
 11
117.9125197043
 21
286.9619826822
 31
0.0
  0
LINE
  5
199
330
1F
100
AcDbEntity
  8
0
  6
Continuous
 62
     7
370
    25
100
AcDbLine
 10
117.5125197043
 20
286.9619826822
 30
0.0
 11
117.5125197043
 21
279.9619826822
 31
0.0
  0
LINE
  5
19A
330
1F
100
AcDbEntity
  8
0
  6
Continuous
 62
     7
370
    25
100
AcDbLine
 10
117.9125197043
 20
286.9619826822
 30
0.0
 11
117.9125197043
 21
279.5619826822
 31
0.0
  0
ARC
  5
19B
330
1F
100
AcDbEntity
  8
0
  6
Continuous
 62
     7
370
    25
100
AcDbCircle
 10
109.1125197043
 20
279.4619826822
 30
0.0
 40
0.5
100
AcDbArc
 50
0.0
 51
90.0
  0
LINE
  5
19C
330
1F
100
AcDbEntity
  8
0
  6
Continuous
 62
     7
370
    25
100
AcDbLine
 10
109.6125197043
 20
272.4619826822
 30
0.0
 11
109.6125197043
 21
279.4619826822
 31
0.0
  0
ARC
  5
19D
330
1F
100
AcDbEntity
  8
0
  6
Continuous
 62
     7
370
    25
100
AcDbCircle
 10
109.1125197043
 20
272.4619826822
 30
0.0
 40
0.5
100
AcDbArc
 50
270.0
 51
0.0
  0
LINE
  5
19E
330
1F
100
AcDbEntity
  8
0
  6
Continuous
 62
     7
370
    25
100
AcDbLine
 10
106.1125197043
 20
271.9619826822
 30
0.0
 11
109.1125197043
 21
271.9619826822
 31
0.0
  0
ARC
  5
19F
330
1F
100
AcDbEntity
  8
0
  6
Continuous
 62
     7
370
    25
100
AcDbCircle
 10
106.1125197043
 20
272.4619826822
 30
0.0
 40
0.5
100
AcDbArc
 50
180.0
 51
270.0
  0
LINE
  5
1A0
330
1F
100
AcDbEntity
  8
0
  6
Continuous
 62
     7
370
    25
100
AcDbLine
 10
105.6125197043
 20
279.4619826822
 30
0.0
 11
105.6125197043
 21
272.4619826822
 31
0.0
  0
ARC
  5
1A1
330
1F
100
AcDbEntity
  8
0
  6
Continuous
 62
     7
370
    25
100
AcDbCircle
 10
106.1125197043
 20
279.4619826822
 30
0.0
 40
0.5
100
AcDbArc
 50
90.0
 51
180.0
  0
LINE
  5
1A2
330
1F
100
AcDbEntity
  8
0
  6
Continuous
 62
     7
370
    25
100
AcDbLine
 10
109.1125197043
 20
279.9619826822
 30
0.0
 11
106.1125197043
 21
279.9619826822
 31
0.0
  0
LINE
  5
1A3
330
1F
100
AcDbEntity
  8
0
  6
Continuous
 62
     7
370
    25
100
AcDbLine
 10
109.1125197043
 20
272.4619826822
 30
0.0
 11
109.1125197043
 21
279.4619826822
 31
0.0
  0
LINE
  5
1A4
330
1F
100
AcDbEntity
  8
0
  6
Continuous
 62
     7
370
    25
100
AcDbLine
 10
109.1125197043
 20
279.4619826822
 30
0.0
 11
106.1125197043
 21
279.4619826822
 31
0.0
  0
LINE
  5
1A5
330
1F
100
AcDbEntity
  8
0
  6
Continuous
 62
     7
370
    25
100
AcDbLine
 10
106.1125197043
 20
279.4619826822
 30
0.0
 11
106.1125197043
 21
272.4619826822
 31
0.0
  0
LINE
  5
1A6
330
1F
100
AcDbEntity
  8
0
  6
Continuous
 62
     7
370
    25
100
AcDbLine
 10
106.1125197043
 20
272.4619826822
 30
0.0
 11
109.1125197043
 21
272.4619826822
 31
0.0
  0
LINE
  5
1A7
330
1F
100
AcDbEntity
  8
0
  6
Continuous
 62
     7
370
    25
100
AcDbLine
 10
53.0125197043
 20
279.5619826822
 30
0.0
 11
62.2125197043
 21
279.5619826822
 31
0.0
  0
ARC
  5
1A8
330
1F
100
AcDbEntity
  8
0
  6
Continuous
 62
     7
370
    25
100
AcDbCircle
 10
53.0125197043
 20
280.2619826822
 30
0.0
 40
0.70000000000001
100
AcDbArc
 50
180.0
 51
270.0
  0
ARC
  5
1A9
330
1F
100
AcDbEntity
  8
0
  6
Continuous
 62
     7
370
    25
100
AcDbCircle
 10
53.0125197043
 20
280.2619826822
 30
0.0
 40
0.3000000000000114
100
AcDbArc
 50
180.0
 51
270.0
  0
LINE
  5
1AA
330
1F
100
AcDbEntity
  8
0
  6
Continuous
 62
     7
370
    25
100
AcDbLine
 10
53.0125197043
 20
279.9619826822
 30
0.0
 11
62.2125197043
 21
279.9619826822
 31
0.0
  0
LINE
  5
1AB
330
1F
100
AcDbEntity
  8
0
  6
Continuous
 62
     7
370
    25
100
AcDbLine
 10
62.2125197043
 20
279.9619826822
 30
0.0
 11
62.2125197043
 21
279.5619826822
 31
0.0
  0
LINE
  5
1AC
330
1F
100
AcDbEntity
  8
0
  6
Continuous
 62
     7
370
    25
100
AcDbLine
 10
52.7125197043
 20
286.9619826822
 30
0.0
 11
52.3125197043
 21
286.9619826822
 31
0.0
  0
LINE
  5
1AD
330
1F
100
AcDbEntity
  8
0
  6
Continuous
 62
     7
370
    25
100
AcDbLine
 10
52.3125197043
 20
286.9619826822
 30
0.0
 11
52.3125197043
 21
280.2619826822
 31
0.0
  0
LINE
  5
1AE
330
1F
100
AcDbEntity
  8
0
  6
Continuous
 62
     7
370
    25
100
AcDbLine
 10
52.7125197043
 20
286.9619826822
 30
0.0
 11
52.7125197043
 21
280.2619826822
 31
0.0
  0
ARC
  5
1AF
330
1F
100
AcDbEntity
  8
0
  6
Continuous
 62
     7
370
    25
100
AcDbCircle
 10
62.2125197043
 20
279.2619826822
 30
0.0
 40
0.7000000000000028
100
AcDbArc
 50
0.0
 51
90.0
  0
LINE
  5
1B0
330
1F
100
AcDbEntity
  8
0
  6
Continuous
 62
     7
370
    25
100
AcDbLine
 10
62.5125197043
 20
279.2619826822
 30
0.0
 11
62.507392449
 21
279.3172100706
 31
0.0
  0
LINE
  5
1B1
330
1F
100
AcDbEntity
  8
0
  6
Continuous
 62
     7
370
    25
100
AcDbLine
 10
62.9125197043
 20
266.7892373603
 30
0.0
 11
62.9125197043
 21
279.2619826822
 31
0.0
  0
LINE
  5
1B2
330
1F
100
AcDbEntity
  8
0
  6
Continuous
 62
     7
370
    25
100
AcDbLine
 10
62.5125197043
 20
266.7892373603
 30
0.0
 11
62.5125197043
 21
279.2619826822
 31
0.0
  0
LINE
  5
1B3
330
1F
100
AcDbEntity
  8
0
  6
Continuous
 62
     7
370
    25
100
AcDbLine
 10
62.9125197043
 20
266.7892373603
 30
0.0
 11
62.5125197043
 21
266.7892373603
 31
0.0
  0
LINE
  5
1B4
330
1F
100
AcDbEntity
  8
0
  6
Continuous
 62
     7
370
    25
100
AcDbLine
 10
55.5125197043
 20
222.5619826822
 30
0.0
 11
55.5125197043
 21
187.5619826822
 31
0.0
  0
LINE
  5
1B5
330
1F
100
AcDbEntity
  8
0
  6
Continuous
 62
     7
370
    25
100
AcDbLine
 10
55.5125197043
 20
187.5619826822
 30
0.0
 11
53.5125197043
 21
187.5619826822
 31
0.0
  0
LINE
  5
1B6
330
1F
100
AcDbEntity
  8
0
  6
Continuous
 62
     7
370
    25
100
AcDbLine
 10
62.5125197043
 20
279.5619826822
 30
0.0
 11
53.5125197043
 21
279.5619826822
 31
0.0
  0
LINE
  5
1B7
330
1F
100
AcDbEntity
  8
0
  6
Continuous
 62
     7
370
    25
100
AcDbLine
 10
53.5125197043
 20
279.5619826822
 30
0.0
 11
53.5125197043
 21
187.5619826822
 31
0.0
  0
LINE
  5
1B8
330
1F
100
AcDbEntity
  8
0
  6
Continuous
 62
     7
370
    25
100
AcDbLine
 10
61.3185399115
 20
222.5619826822
 30
0.0
 11
62.5125197043
 21
279.5619826822
 31
0.0
  0
LINE
  5
1B9
330
1F
100
AcDbEntity
  8
0
  6
Continuous
 62
     7
370
    25
100
AcDbLine
 10
61.3185399115
 20
222.5619826822
 30
0.0
 11
55.5125197043
 21
222.5619826822
 31
0.0
  0
LINE
  5
1BA
330
1F
100
AcDbEntity
  8
0
  6
Continuous
 62
     7
370
    25
100
AcDbLine
 10
173.5125197043
 20
187.5619826822
 30
0.0
 11
171.5125197043
 21
187.5619826822
 31
0.0
  0
LINE
  5
1BB
330
1F
100
AcDbEntity
  8
0
  6
Continuous
 62
     7
370
    25
100
AcDbLine
 10
171.5125197043
 20
187.5619826822
 30
0.0
 11
171.5125197043
 21
222.5619826822
 31
0.0
  0
LINE
  5
1BC
330
1F
100
AcDbEntity
  8
0
  6
Continuous
 62
     7
370
    25
100
AcDbLine
 10
173.5125197043
 20
187.5619826822
 30
0.0
 11
173.5125197043
 21
259.5619826822
 31
0.0
  0
LINE
  5
1BD
330
1F
100
AcDbEntity
  8
0
  6
Continuous
 62
     7
370
    25
100
AcDbLine
 10
173.5125197043
 20
259.5619826822
 30
0.0
 11
164.9314599825
 21
259.5619826822
 31
0.0
  0
LINE
  5
1BE
330
1F
100
AcDbEntity
  8
0
  6
Continuous
 62
     7
370
    25
100
AcDbLine
 10
164.9314599825
 20
259.5619826822
 30
0.0
 11
165.7064994972
 21
222.5619826822
 31
0.0
  0
LINE
  5
1BF
330
1F
100
AcDbEntity
  8
0
  6
Continuous
 62
     7
370
    25
100
AcDbLine
 10
171.5125197043
 20
222.5619826822
 30
0.0
 11
165.7064994972
 21
222.5619826822
 31
0.0
  0
LINE
  5
1C0
330
1F
100
AcDbEntity
  8
0
  6
Continuous
 62
     7
370
    25
100
AcDbLine
 10
60.5853944246
 20
187.5619826822
 30
0.0
 11
55.5125197043
 21
187.5619826822
 31
0.0
  0
LINE
  5
1C1
330
1F
100
AcDbEntity
  8
0
  6
Continuous
 62
     7
370
    25
100
AcDbLine
 10
60.5853944246
 20
187.5619826822
 30
0.0
 11
61.3185399115
 21
222.5619826822
 31
0.0
  0
LINE
  5
1C2
330
1F
100
AcDbEntity
  8
0
  6
Continuous
 62
     7
370
    25
100
AcDbLine
 10
171.5125197043
 20
187.5619826822
 30
0.0
 11
166.439644984
 21
187.5619826822
 31
0.0
  0
LINE
  5
1C3
330
1F
100
AcDbEntity
  8
0
  6
Continuous
 62
     7
370
    25
100
AcDbLine
 10
165.7064994972
 20
222.5619826822
 30
0.0
 11
166.439644984
 21
187.5619826822
 31
0.0
  0
LINE
  5
1C4
330
1F
100
AcDbEntity
  8
0
  6
Continuous
 62
     7
370
    25
100
AcDbLine
 10
104.5125197043
 20
279.5619826822
 30
0.0
 11
104.5125197043
 21
259.5619826822
 31
0.0
  0
LINE
  5
1C5
330
1F
100
AcDbEntity
  8
0
  6
Continuous
 62
     7
370
    25
100
AcDbLine
 10
138.5125197043
 20
222.5619826822
 30
0.0
 11
148.5125197043
 21
187.5619826822
 31
0.0
  0
LINE
  5
1C6
330
1F
100
AcDbEntity
  8
0
  6
Continuous
 62
     7
370
    25
100
AcDbLine
 10
88.5125197043
 20
222.5619826822
 30
0.0
 11
138.5125197043
 21
222.5619826822
 31
0.0
  0
LINE
  5
1C7
330
1F
100
AcDbEntity
  8
0
  6
Continuous
 62
     7
370
    25
100
AcDbLine
 10
78.5125197043
 20
187.5619826822
 30
0.0
 11
88.5125197043
 21
222.5619826822
 31
0.0
  0
CIRCLE
  5
1C8
330
1F
100
AcDbEntity
  8
0
  6
Continuous
 62
     7
370
    25
100
AcDbCircle
 10
94.7125197043
 20
274.5619826822
 30
0.0
 40
0.5999999999999659
  0
LINE
  5
1C9
330
1F
100
AcDbEntity
  8
0
  6
Continuous
 62
     7
370
    25
100
AcDbLine
 10
78.5125197043
 20
187.5619826822
 30
0.0
 11
60.5853944246
 21
187.5619826822
 31
0.0
  0
LINE
  5
1CA
330
1F
100
AcDbEntity
  8
0
  6
Continuous
 62
     7
370
    25
100
AcDbLine
 10
166.439644984
 20
187.5619826822
 30
0.0
 11
148.5125197043
 21
187.5619826822
 31
0.0
  0
LINE
  5
1CB
330
1F
100
AcDbEntity
  8
0
  6
Continuous
 62
     7
370
    25
100
AcDbLine
 10
104.5125197043
 20
259.5619826822
 30
0.0
 11
118.5125197043
 21
259.5619826822
 31
0.0
  0
LINE
  5
1CC
330
1F
100
AcDbEntity
  8
0
  6
Continuous
 62
     7
370
    25
100
AcDbLine
 10
104.5125197043
 20
279.5619826822
 30
0.0
 11
62.8449752364
 21
279.5619826822
 31
0.0
  0
LINE
  5
1CD
330
1F
100
AcDbEntity
  8
0
  6
Continuous
 62
     7
370
    25
100
AcDbLine
 10
148.5125197043
 20
187.5619826822
 30
0.0
 11
78.5125197043
 21
187.5619826822
 31
0.0
  0
LINE
  5
1CE
330
1F
100
AcDbEntity
  8
0
  6
Continuous
 62
     7
370
    25
100
AcDbLine
 10
116.1782308394
 20
279.9619826822
 30
0.0
 11
117.4125197043
 21
286.9619826822
 31
0.0
  0
LINE
  5
1CF
330
1F
100
AcDbEntity
  8
0
  6
Continuous
 62
     7
370
    25
100
AcDbLine
 10
109.6125197043
 20
279.9619826822
 30
0.0
 11
109.1125197043
 21
279.9619826822
 31
0.0
  0
LINE
  5
1D0
330
1F
100
AcDbEntity
  8
0
  6
Continuous
 62
     7
370
    25
100
AcDbLine
 10
106.1125197043
 20
279.9619826822
 30
0.0
 11
62.2125197043
 21
279.9619826822
 31
0.0
  0
LINE
  5
1D1
330
1F
100
AcDbEntity
  8
0
  6
Continuous
 62
     7
370
    25
100
AcDbLine
 10
54.0468085693
 20
279.9619826822
 30
0.0
 11
52.8125197043
 21
286.9619826822
 31
0.0
  0
LINE
  5
1D2
330
1F
100
AcDbEntity
  8
0
  6
Continuous
 62
     7
370
    25
100
AcDbLine
 10
117.4125197043
 20
286.9619826822
 30
0.0
 11
52.8125197043
 21
286.9619826822
 31
0.0
  0
LINE
  5
1D3
330
1F
100
AcDbEntity
  8
0
  6
Continuous
 62
     7
370
    25
100
AcDbLine
 10
142.0260455618
 20
254.4310295217
 30
0.0
 11
142.0260455618
 21
267.4310295217
 31
0.0
  0
LINE
  5
1D4
330
1F
100
AcDbEntity
  8
0
  6
Continuous
 62
     7
370
    25
100
AcDbLine
 10
142.0260455618
 20
267.4310295217
 30
0.0
 11
145.0260455618
 21
267.4310295217
 31
0.0
  0
LINE
  5
1D5
330
1F
100
AcDbEntity
  8
0
  6
Continuous
 62
     7
370
    25
100
AcDbLine
 10
145.0260455618
 20
267.4310295217
 30
0.0
 11
145.0260455618
 21
254.4310295217
 31
0.0
  0
LINE
  5
1D6
330
1F
100
AcDbEntity
  8
0
  6
Continuous
 62
     7
370
    25
100
AcDbLine
 10
145.0260455618
 20
254.4310295217
 30
0.0
 11
142.0260455618
 21
254.4310295217
 31
0.0
  0
LINE
  5
1D7
330
1F
100
AcDbEntity
  8
0
  6
Continuous
 62
     7
370
    25
100
AcDbLine
 10
142.8760455618
 20
255.7810295217
 30
0.0
 11
142.8760455618
 21
257.4810295217
 31
0.0
  0
ARC
  5
1D8
330
1F
100
AcDbEntity
  8
0
  6
Continuous
 62
     7
370
    25
100
AcDbCircle
 10
143.5260455618
 20
255.7810295217
 30
0.0
 40
0.6500000000000057
100
AcDbArc
 50
180.0
 51
0.0
  0
LINE
  5
1D9
330
1F
100
AcDbEntity
  8
0
  6
Continuous
 62
     7
370
    25
100
AcDbLine
 10
144.1760455618
 20
257.4810295217
 30
0.0
 11
144.1760455618
 21
255.7810295217
 31
0.0
  0
ARC
  5
1DA
330
1F
100
AcDbEntity
  8
0
  6
Continuous
 62
     7
370
    25
100
AcDbCircle
 10
143.5260455618
 20
257.4810295217
 30
0.0
 40
0.6500000000000057
100
AcDbArc
 50
0.0
 51
180.0
  0
LINE
  5
1DB
330
1F
100
AcDbEntity
  8
0
  6
Continuous
 62
     7
370
    25
100
AcDbLine
 10
142.8760455618
 20
264.3810295217
 30
0.0
 11
142.8760455618
 21
266.0810295217
 31
0.0
  0
ARC
  5
1DC
330
1F
100
AcDbEntity
  8
0
  6
Continuous
 62
     7
370
    25
100
AcDbCircle
 10
143.5260455618
 20
264.3810295217
 30
0.0
 40
0.6500000000000057
100
AcDbArc
 50
180.0
 51
0.0
  0
LINE
  5
1DD
330
1F
100
AcDbEntity
  8
0
  6
Continuous
 62
     7
370
    25
100
AcDbLine
 10
144.1760455618
 20
266.0810295217
 30
0.0
 11
144.1760455618
 21
264.3810295217
 31
0.0
  0
ARC
  5
1DE
330
1F
100
AcDbEntity
  8
0
  6
Continuous
 62
     7
370
    25
100
AcDbCircle
 10
143.5260455618
 20
266.0810295217
 30
0.0
 40
0.6500000000000057
100
AcDbArc
 50
0.0
 51
180.0
  0
LINE
  5
1DF
330
1F
100
AcDbEntity
  8
0
  6
Continuous
 62
     7
370
    25
100
AcDbLine
 10
142.0125197043
 20
243.2684166898
 30
0.0
 11
145.0125197043
 21
243.2684166898
 31
0.0
  0
LINE
  5
1E0
330
1F
100
AcDbEntity
  8
0
  6
Continuous
 62
     7
370
    25
100
AcDbLine
 10
142.0125197043
 20
254.5619826822
 30
0.0
 11
142.0125197043
 21
243.2684166898
 31
0.0
  0
LINE
  5
1E1
330
1F
100
AcDbEntity
  8
0
  6
Continuous
 62
     7
370
    25
100
AcDbLine
 10
145.0125197043
 20
243.2684166898
 30
0.0
 11
145.0125197043
 21
254.4310295217
 31
0.0
  0
LINE
  5
1E2
330
1F
100
AcDbEntity
  8
0
  6
Continuous
 62
     7
370
    25
100
AcDbLine
 10
146.0125197043
 20
254.5619826822
 30
0.0
 11
146.0125197043
 21
258.8619826822
 31
0.0
  0
LINE
  5
1E3
330
1F
100
AcDbEntity
  8
0
  6
Continuous
 62
     7
370
    25
100
AcDbLine
 10
141.0125197043
 20
254.5619826822
 30
0.0
 11
141.0125197043
 21
258.8619826822
 31
0.0
  0
LINE
  5
1E4
330
1F
100
AcDbEntity
  8
0
  6
Continuous
 62
     7
370
    25
100
AcDbLine
 10
146.0125197043
 20
254.5619826822
 30
0.0
 11
145.0260455618
 21
254.5619826822
 31
0.0
  0
LINE
  5
1E5
330
1F
100
AcDbEntity
  8
0
  6
Continuous
 62
     7
370
    25
100
AcDbLine
 10
142.0260455618
 20
254.5619826822
 30
0.0
 11
141.0125197043
 21
254.5619826822
 31
0.0
  0
ARC
  5
1E6
330
1F
100
AcDbEntity
  8
0
  6
Continuous
 62
     7
370
    25
100
AcDbCircle
 10
143.5125197043
 20
255.9619826822
 30
0.0
 40
0.7000000000000167
100
AcDbArc
 50
207.5605821044
 51
340.9889900466
  0
ARC
  5
1E7
330
1F
100
AcDbEntity
  8
0
  6
Continuous
 62
     7
370
    25
100
AcDbCircle
 10
143.5125197043
 20
257.0619826822
 30
0.0
 40
0.7000000000000057
100
AcDbArc
 50
18.5774118422
 51
155.4017433655
  0
LINE
  5
1E8
330
1F
100
AcDbEntity
  8
0
  6
Continuous
 62
     7
370
    25
100
AcDbLine
 10
146.0125197043
 20
259.5619826822
 30
0.0
 11
145.0260455618
 21
259.5619826822
 31
0.0
  0
LINE
  5
1E9
330
1F
100
AcDbEntity
  8
0
  6
Continuous
 62
     7
370
    25
100
AcDbLine
 10
142.0260455618
 20
259.5619826822
 30
0.0
 11
141.0125197043
 21
259.5619826822
 31
0.0
  0
LINE
  5
1EA
330
1F
100
AcDbEntity
  8
0
  6
Continuous
 62
     7
370
    25
100
AcDbLine
 10
141.0125197043
 20
258.8619826822
 30
0.0
 11
141.0125197043
 21
259.5619826822
 31
0.0
  0
LINE
  5
1EB
330
1F
100
AcDbEntity
  8
0
  6
Continuous
 62
     7
370
    25
100
AcDbLine
 10
146.0125197043
 20
258.8619826822
 30
0.0
 11
146.0125197043
 21
259.5619826822
 31
0.0
  0
LINE
  5
1EC
330
1F
100
AcDbEntity
  8
0
  6
Continuous
 62
     7
370
    25
100
AcDbLine
 10
141.0125197043
 20
254.5619826822
 30
0.0
 11
141.0125197043
 21
236.5619826822
 31
0.0
  0
ARC
  5
1ED
330
1F
100
AcDbEntity
  8
0
  6
Continuous
 62
     7
370
    25
100
AcDbCircle
 10
143.5125197043
 20
239.4619826822
 30
0.0
 40
0.700000000000017
100
AcDbArc
 50
180.0
 51
0.0
  0
LINE
  5
1EE
330
1F
100
AcDbEntity
  8
0
  6
Continuous
 62
     7
370
    25
100
AcDbLine
 10
146.0125197043
 20
236.5619826822
 30
0.0
 11
141.0125197043
 21
236.5619826822
 31
0.0
  0
LINE
  5
1EF
330
1F
100
AcDbEntity
  8
0
  6
Continuous
 62
     7
370
    25
100
AcDbLine
 10
144.2125197043
 20
239.4619826822
 30
0.0
 11
144.2125197043
 21
240.5619826822
 31
0.0
  0
ARC
  5
1F0
330
1F
100
AcDbEntity
  8
0
  6
Continuous
 62
     7
370
    25
100
AcDbCircle
 10
143.5125197043
 20
240.5619826822
 30
0.0
 40
0.700000000000017
100
AcDbArc
 50
0.0
 51
180.0
  0
LINE
  5
1F1
330
1F
100
AcDbEntity
  8
0
  6
Continuous
 62
     7
370
    25
100
AcDbLine
 10
146.0125197043
 20
254.5619826822
 30
0.0
 11
146.0125197043
 21
236.5619826822
 31
0.0
  0
LINE
  5
1F2
330
1F
100
AcDbEntity
  8
0
  6
Continuous
 62
     7
370
    25
100
AcDbLine
 10
142.8125197043
 20
240.5619826822
 30
0.0
 11
142.8125197043
 21
239.4619826822
 31
0.0
  0
LINE
  5
1F3
330
1F
100
AcDbEntity
  8
0
  6
Continuous
 62
     7
370
    25
100
AcDbLine
 10
118.5125197043
 20
286.9619826822
 30
0.0
 11
125.5125197043
 21
286.9619826822
 31
0.0
  0
LINE
  5
1F4
330
1F
100
AcDbEntity
  8
0
  6
Continuous
 62
     7
370
    25
100
AcDbLine
 10
118.5125197043
 20
259.5619826822
 30
0.0
 11
141.0125197043
 21
259.5619826822
 31
0.0
  0
LINE
  5
1F5
330
1F
100
AcDbEntity
  8
0
  6
Continuous
 62
     7
370
    25
100
AcDbLine
 10
146.0125197043
 20
259.5619826822
 30
0.0
 11
164.9314599825
 21
259.5619826822
 31
0.0
  0
LINE
  5
1F6
330
1F
100
AcDbEntity
  8
0
  6
Continuous
 62
     7
370
    25
100
AcDbLine
 10
173.5125197043
 20
266.5619826822
 30
0.0
 11
173.5125197043
 21
259.5619826822
 31
0.0
  0
LINE
  5
1F7
330
1F
100
AcDbEntity
  8
0
  6
Continuous
 62
     7
370
    25
100
AcDbLine
 10
125.5125197043
 20
266.5619826822
 30
0.0
 11
142.0260455618
 21
266.5619826822
 31
0.0
  0
LINE
  5
1F8
330
1F
100
AcDbEntity
  8
0
  6
Continuous
 62
     7
370
    25
100
AcDbLine
 10
143.0887995699
 20
266.5619826822
 30
0.0
 11
143.9632915538
 21
266.5619826822
 31
0.0
  0
LINE
  5
1F9
330
1F
100
AcDbEntity
  8
0
  6
Continuous
 62
     7
370
    25
100
AcDbLine
 10
145.0260455618
 20
266.5619826822
 30
0.0
 11
173.5125197043
 21
266.5619826822
 31
0.0
  0
LINE
  5
1FA
330
1F
100
AcDbEntity
  8
0
  6
Continuous
 62
     7
370
    25
100
AcDbLine
 10
118.5125197043
 20
286.9619826822
 30
0.0
 11
118.5125197043
 21
259.5619826822
 31
0.0
  0
LINE
  5
1FB
330
1F
100
AcDbEntity
  8
0
  6
Continuous
 62
     7
370
    25
100
AcDbLine
 10
125.5125197043
 20
286.9619826822
 30
0.0
 11
125.5125197043
 21
266.5619826822
 31
0.0
  0
LINE
  5
1FC
330
1F
100
AcDbEntity
  8
0
  6
Continuous
 62
     7
370
    25
100
AcDbLine
 10
105.5125197043
 20
271.9619826822
 30
0.0
 11
106.1125197043
 21
271.9619826822
 31
0.0
  0
LINE
  5
1FD
330
1F
100
AcDbEntity
  8
0
  6
Continuous
 62
     7
370
    25
100
AcDbLine
 10
109.1125197043
 20
271.9619826822
 30
0.0
 11
109.7125197043
 21
271.9619826822
 31
0.0
  0
LINE
  5
1FE
330
1F
100
AcDbEntity
  8
0
  6
Continuous
 62
     7
370
    25
100
AcDbLine
 10
109.7125197043
 20
278.4619826822
 30
0.0
 11
110.2125197043
 21
278.4619826822
 31
0.0
  0
LINE
  5
1FF
330
1F
100
AcDbEntity
  8
0
  6
Continuous
 62
     7
370
    25
100
AcDbLine
 10
105.5125197043
 20
278.4619826822
 30
0.0
 11
105.5125197043
 21
271.9619826822
 31
0.0
  0
LINE
  5
200
330
1F
100
AcDbEntity
  8
0
  6
Continuous
 62
     7
370
    25
100
AcDbLine
 10
105.0125197043
 20
278.4619826822
 30
0.0
 11
105.5125197043
 21
278.4619826822
 31
0.0
  0
LINE
  5
201
330
1F
100
AcDbEntity
  8
0
  6
Continuous
 62
     7
370
    25
100
AcDbLine
 10
109.7125197043
 20
271.9619826822
 30
0.0
 11
109.7125197043
 21
278.4619826822
 31
0.0
  0
LINE
  5
202
330
1F
100
AcDbEntity
  8
0
  6
Continuous
 62
     7
370
    25
100
AcDbLine
 10
105.0125197043
 20
271.4619826822
 30
0.0
 11
105.0125197043
 21
278.4619826822
 31
0.0
  0
LINE
  5
203
330
1F
100
AcDbEntity
  8
0
  6
Continuous
 62
     7
370
    25
100
AcDbLine
 10
110.2125197043
 20
278.4619826822
 30
0.0
 11
110.2125197043
 21
271.4619826822
 31
0.0
  0
LINE
  5
204
330
1F
100
AcDbEntity
  8
0
  6
Continuous
 62
     7
370
    25
100
AcDbLine
 10
110.2125197043
 20
271.4619826822
 30
0.0
 11
105.0125197043
 21
271.4619826822
 31
0.0
  0
LINE
  5
205
330
1F
100
AcDbEntity
  8
0
  6
Continuous
 62
     7
370
    25
100
AcDbLine
 10
96.8125197043
 20
278.7619826822
 30
0.0
 11
96.8125197043
 21
266.5619826822
 31
0.0
  0
LINE
  5
206
330
1F
100
AcDbEntity
  8
0
  6
Continuous
 62
     7
370
    25
100
AcDbLine
 10
96.8125197043
 20
266.5619826822
 30
0.0
 11
91.8125197043
 21
266.5619826822
 31
0.0
  0
LINE
  5
207
330
1F
100
AcDbEntity
  8
0
  6
Continuous
 62
     7
370
    25
100
AcDbLine
 10
91.8125197043
 20
266.5619826822
 30
0.0
 11
91.8125197043
 21
278.7619826822
 31
0.0
  0
ARC
  5
208
330
1F
100
AcDbEntity
  8
0
  6
Continuous
 62
     7
370
    25
100
AcDbCircle
 10
94.3125197043
 20
274.4619826822
 30
0.0
 40
1.150000000000006
100
AcDbArc
 50
0.0
 51
180.0
  0
LINE
  5
209
330
1F
100
AcDbEntity
  8
0
  6
Continuous
 62
     7
370
    25
100
AcDbLine
 10
93.1625197043
 20
269.4619826822
 30
0.0
 11
93.1625197043
 21
274.4619826822
 31
0.0
  0
ARC
  5
20A
330
1F
100
AcDbEntity
  8
0
  6
Continuous
 62
     7
370
    25
100
AcDbCircle
 10
94.3125197043
 20
269.4619826822
 30
0.0
 40
1.15000000000002
100
AcDbArc
 50
180.0
 51
0.0
  0
LINE
  5
20B
330
1F
100
AcDbEntity
  8
0
  6
Continuous
 62
     7
370
    25
100
AcDbLine
 10
95.4625197043
 20
274.4619826822
 30
0.0
 11
95.4625197043
 21
269.4619826822
 31
0.0
  0
LINE
  5
20C
330
1F
100
AcDbEntity
  8
0
  6
Continuous
 62
     7
370
    25
100
AcDbLine
 10
91.8125197043
 20
279.4335989937
 30
0.0
 11
91.8125197043
 21
278.7619826822
 31
0.0
  0
LINE
  5
20D
330
1F
100
AcDbEntity
  8
0
  6
Continuous
 62
     7
370
    25
100
AcDbLine
 10
96.8125197043
 20
278.7619826822
 30
0.0
 11
96.8125197043
 21
279.4335989937
 31
0.0
  0
LINE
  5
20E
330
1F
100
AcDbEntity
  8
0
  6
Continuous
 62
     7
370
    25
100
AcDbLine
 10
103.1125197043
 20
279.7619826822
 30
0.0
 11
103.1125197043
 21
279.5619826822
 31
0.0
  0
LINE
  5
20F
330
1F
100
AcDbEntity
  8
0
  6
Continuous
 62
     7
370
    25
100
AcDbLine
 10
128.1125197043
 20
286.9619826822
 30
0.0
 11
125.5125197043
 21
286.9619826822
 31
0.0
  0
LINE
  5
210
330
1F
100
AcDbEntity
  8
0
  6
Continuous
 62
     7
370
    25
100
AcDbLine
 10
118.5125197043
 20
286.9619826822
 30
0.0
 11
117.9125197043
 21
286.9619826822
 31
0.0
  0
LINE
  5
211
330
1F
100
AcDbEntity
  8
0
  6
Continuous
 62
     7
370
    25
100
AcDbLine
 10
117.5125197043
 20
286.9619826822
 30
0.0
 11
117.4125197043
 21
286.9619826822
 31
0.0
  0
LINE
  5
212
330
1F
100
AcDbEntity
  8
0
  6
Continuous
 62
     7
370
    25
100
AcDbLine
 10
52.8125197043
 20
286.9619826822
 30
0.0
 11
52.7125197043
 21
286.9619826822
 31
0.0
  0
LINE
  5
213
330
1F
100
AcDbEntity
  8
0
  6
Continuous
 62
     7
370
    25
100
AcDbLine
 10
128.1125197043
 20
266.5619826822
 30
0.0
 11
128.1125197043
 21
286.9619826822
 31
0.0
  0
LINE
  5
214
330
1F
100
AcDbEntity
  8
0
  6
Continuous
 62
     7
370
    25
100
AcDbLine
 10
103.1125197043
 20
279.7619826822
 30
0.0
 11
103.1125197043
 21
279.8819826822
 31
0.0
  0
LINE
  5
215
330
1F
100
AcDbEntity
  8
0
  6
Continuous
 62
     7
370
    25
100
AcDbLine
 10
103.2325197043
 20
279.8819826822
 30
0.0
 11
103.2325197043
 21
279.5619826822
 31
0.0
  0
ARC
  5
216
330
1F
100
AcDbEntity
  8
0
  6
Continuous
 62
     7
370
    25
100
AcDbCircle
 10
103.1725197043
 20
279.8819826822
 30
0.0
 40
0.0600000000000023
100
AcDbArc
 50
0.0
 51
180.0
  0
LINE
  5
217
330
1F
100
AcDbEntity
  8
0
  6
PHANTOM
 62
     1
370
    18
100
AcDbLine
 10
62.5125197043
 20
279.2619826822
 30
0.0
 11
62.9125197043
 21
279.2619826822
 31
0.0
  0
LINE
  5
218
330
1F
100
AcDbEntity
  8
0
  6
PHANTOM
 62
     1
370
    18
100
AcDbLine
 10
146.0125197043
 20
258.8619826822
 30
0.0
 11
145.0260455618
 21
258.8619826822
 31
0.0
  0
LINE
  5
219
330
1F
100
AcDbEntity
  8
0
  6
PHANTOM
 62
     1
370
    18
100
AcDbLine
 10
142.0260455618
 20
258.8619826822
 30
0.0
 11
141.0125197043
 21
258.8619826822
 31
0.0
  0
LINE
  5
21A
330
1F
100
AcDbEntity
  8
0
  6
PHANTOM
 62
     1
370
    18
100
AcDbLine
 10
96.8125197043
 20
278.7619826822
 30
0.0
 11
91.8125197043
 21
278.7619826822
 31
0.0
  0
LINE
  5
21B
330
1F
100
AcDbEntity
  8
0
  6
PHANTOM
 62
     1
370
    18
100
AcDbLine
 10
62.7024176529
 20
279.7619826822
 30
0.0
 11
103.1125197043
 21
279.7619826822
 31
0.0
  0
HATCH
  5
21C
330
1F
100
AcDbEntity
  8
O-TEKST
  6
Continuous
370
    18
100
AcDbHatch
 10
0.0
 20
0.0
 30
0.0
210
0.0
220
0.0
230
1.0
  2
ANSI34
 70
     0
 71
     0
 91
        1
 92
        0
 93
        6
 72
     1
 10
171.5125197043294
 20
187.561982682154
 11
173.5125197043294
 21
187.561982682154
 72
     1
 10
173.5125197043294
 20
187.561982682154
 11
173.5125197043294
 21
259.5619826821541
 72
     1
 10
173.5125197043294
 20
259.5619826821541
 11
164.9314599825226
 21
259.561982682154
 72
     1
 10
164.9314599825226
 20
259.561982682154
 11
165.70649949718
 21
222.561982682154
 72
     1
 10
165.70649949718
 20
222.561982682154
 11
171.5125197043294
 21
222.561982682154
 72
     1
 10
171.5125197043294
 20
222.561982682154
 11
171.5125197043294
 21
187.561982682154
 97
        0
 75
     0
 76
     1
 52
0.0
 41
1.0
 77
     0
 78
     4
 53
45.0
 43
0.0
 44
0.0
 45
-13.47038418160373
 46
13.47038418160373
 79
     0
 53
45.0
 43
4.49013
 44
0.0
 45
-13.47038418160373
 46
13.47038418160373
 79
     0
 53
45.0
 43
8.98026
 44
0.0
 45
-13.47038418160373
 46
13.47038418160373
 79
     0
 53
45.0
 43
13.4704
 44
0.0
 45
-13.47038418160373
 46
13.47038418160373
 79
     0
 98
        1
 10
0.0
 20
0.0
  0
HATCH
  5
21D
330
1F
100
AcDbEntity
  8
O-TEKST
  6
Continuous
370
    18
100
AcDbHatch
 10
0.0
 20
0.0
 30
0.0
210
0.0
220
0.0
230
1.0
  2
ANSI34
 70
     0
 71
     0
 91
        1
 92
        0
 93
        6
 72
     1
 10
62.51251970432939
 20
279.561982682154
 11
53.51251970432938
 21
279.561982682154
 72
     1
 10
53.51251970432938
 20
279.561982682154
 11
53.51251970432938
 21
187.561982682154
 72
     1
 10
53.51251970432938
 20
187.561982682154
 11
55.51251970432939
 21
187.561982682154
 72
     1
 10
55.51251970432939
 20
187.561982682154
 11
55.51251970432939
 21
222.561982682154
 72
     1
 10
55.51251970432939
 20
222.561982682154
 11
61.31853991147879
 21
222.561982682154
 72
     1
 10
61.31853991147879
 20
222.561982682154
 11
62.51251970432939
 21
279.561982682154
 97
        0
 75
     0
 76
     1
 52
0.0
 41
1.0
 77
     0
 78
     4
 53
45.0
 43
0.0
 44
0.0
 45
-13.47038418160373
 46
13.47038418160373
 79
     0
 53
45.0
 43
4.49013
 44
0.0
 45
-13.47038418160373
 46
13.47038418160373
 79
     0
 53
45.0
 43
8.98026
 44
0.0
 45
-13.47038418160373
 46
13.47038418160373
 79
     0
 53
45.0
 43
13.4704
 44
0.0
 45
-13.47038418160373
 46
13.47038418160373
 79
     0
 98
        1
 10
0.0
 20
0.0
  0
HATCH
  5
21E
330
1F
100
AcDbEntity
  8
O-TEKST
  6
Continuous
370
    18
100
AcDbHatch
 10
0.0
 20
0.0
 30
0.0
210
0.0
220
0.0
230
1.0
  2
ANSI34
 70
     0
 71
     0
 91
        1
 92
        0
 93
        8
 72
     1
 10
62.21251970432956
 20
279.5619826821542
 11
62.21251970432956
 21
279.9619826821542
 72
     1
 10
62.21251970432956
 20
279.9619826821542
 11
53.01251970432958
 21
279.9619826821542
 72
     2
 10
53.01251970432957
 20
280.2619826821542
 40
0.2999999999999995
 50
89.99999999999865
 51
180.0
 73
     0
 72
     1
 10
52.71251970432957
 20
280.2619826821542
 11
52.71251970432957
 21
286.9619826821542
 72
     1
 10
52.71251970432957
 20
286.9619826821542
 11
52.31251970432957
 21
286.9619826821542
 72
     1
 10
52.31251970432957
 20
286.9619826821542
 11
52.31251970432957
 21
280.2619826821542
 72
     2
 10
53.01251970432957
 20
280.2619826821542
 40
0.6999999999999996
 50
180.0
 51
270.0000000000014
 73
     1
 72
     1
 10
53.01251970432958
 20
279.5619826821542
 11
62.21251970432956
 21
279.5619826821542
 97
        0
 75
     0
 76
     1
 52
90.0
 41
1.0
 77
     0
 78
     4
 53
135.0000000000002
 43
0.0
 44
0.0
 45
-13.47038418160369
 46
-13.47038418160378
 79
     0
 53
135.0000000000002
 43
-0.0000000000000157
 44
4.49013
 45
-13.47038418160369
 46
-13.47038418160378
 79
     0
 53
135.0000000000002
 43
-0.0000000000000314
 44
8.98026
 45
-13.47038418160369
 46
-13.47038418160378
 79
     0
 53
135.0000000000002
 43
-0.000000000000047
 44
13.4704
 45
-13.47038418160369
 46
-13.47038418160378
 79
     0
 98
        1
 10
0.0
 20
0.0
  0
HATCH
  5
21F
330
1F
100
AcDbEntity
  8
O-TEKST
  6
Continuous
370
    18
100
AcDbHatch
 10
0.0
 20
0.0
 30
0.0
210
0.0
220
0.0
230
1.0
  2
ANSI34
 70
     0
 71
     0
 91
        2
 92
        0
 93
        8
 72
     1
 10
109.1125197043294
 20
279.961982682154
 11
106.1125197043294
 21
279.961982682154
 72
     2
 10
106.1125197043294
 20
279.461982682154
 40
0.4999999999999998
 50
89.99999999999837
 51
180.0
 73
     1
 72
     1
 10
105.6125197043294
 20
279.461982682154
 11
105.6125197043294
 21
272.461982682154
 72
     2
 10
106.1125197043294
 20
272.461982682154
 40
0.4999999999999998
 50
180.0
 51
270.0000000000008
 73
     1
 72
     1
 10
106.1125197043294
 20
271.961982682154
 11
109.1125197043294
 21
271.961982682154
 72
     2
 10
109.1125197043294
 20
272.461982682154
 40
0.4999999999999998
 50
270.0000000000008
 51
360.0000000000008
 73
     1
 72
     1
 10
109.6125197043294
 20
272.461982682154
 11
109.6125197043294
 21
279.461982682154
 72
     2
 10
109.1125197043294
 20
279.461982682154
 40
0.4999999999999998
 50
0.0
 51
90.0
 73
     1
 97
        0
 92
        0
 93
        4
 72
     1
 10
109.1125197043294
 20
272.461982682154
 11
106.1125197043294
 21
272.461982682154
 72
     1
 10
106.1125197043294
 20
272.461982682154
 11
106.1125197043294
 21
279.461982682154
 72
     1
 10
106.1125197043294
 20
279.461982682154
 11
109.1125197043294
 21
279.461982682154
 72
     1
 10
109.1125197043294
 20
279.461982682154
 11
109.1125197043294
 21
272.461982682154
 97
        0
 75
     0
 76
     1
 52
0.0
 41
1.0
 77
     0
 78
     4
 53
45.0
 43
0.0
 44
0.0
 45
-13.47038418160373
 46
13.47038418160373
 79
     0
 53
45.0
 43
4.49013
 44
0.0
 45
-13.47038418160373
 46
13.47038418160373
 79
     0
 53
45.0
 43
8.98026
 44
0.0
 45
-13.47038418160373
 46
13.47038418160373
 79
     0
 53
45.0
 43
13.4704
 44
0.0
 45
-13.47038418160373
 46
13.47038418160373
 79
     0
 98
        1
 10
0.0
 20
0.0
  0
HATCH
  5
220
330
1F
100
AcDbEntity
  8
O-TEKST
  6
Continuous
370
    18
100
AcDbHatch
 10
0.0
 20
0.0
 30
0.0
210
0.0
220
0.0
230
1.0
  2
ANSI34
 70
     0
 71
     0
 91
        1
 92
        0
 93
        6
 72
     1
 10
117.9125197043294
 20
286.961982682154
 11
117.5125197043294
 21
286.961982682154
 72
     1
 10
117.5125197043294
 20
286.961982682154
 11
117.5125197043294
 21
279.9619826821539
 72
     1
 10
117.5125197043294
 20
279.9619826821539
 11
109.6125197043294
 21
279.961982682154
 72
     1
 10
109.6125197043294
 20
279.961982682154
 11
109.6125197043294
 21
279.561982682154
 72
     1
 10
109.6125197043294
 20
279.561982682154
 11
117.9125197043294
 21
279.5619826821539
 72
     1
 10
117.9125197043294
 20
279.5619826821539
 11
117.9125197043294
 21
286.961982682154
 97
        0
 75
     0
 76
     1
 52
0.0
 41
1.0
 77
     0
 78
     4
 53
45.0
 43
0.0
 44
0.0
 45
-13.47038418160373
 46
13.47038418160373
 79
     0
 53
45.0
 43
4.49013
 44
0.0
 45
-13.47038418160373
 46
13.47038418160373
 79
     0
 53
45.0
 43
8.98026
 44
0.0
 45
-13.47038418160373
 46
13.47038418160373
 79
     0
 53
45.0
 43
13.4704
 44
0.0
 45
-13.47038418160373
 46
13.47038418160373
 79
     0
 98
        1
 10
0.0
 20
0.0
  0
INSERT
  5
226
330
1F
100
AcDbEntity
  8
O-TEKST
100
AcDbBlockReference
  2
SW_NOTE_0
 10
91.3776260426
 20
166.2360796485
 30
0.0
  0
LINE
  5
227
330
1F
100
AcDbEntity
  8
0
  6
Continuous
 62
     7
370
    25
100
AcDbLine
 10
373.2542599366
 20
162.0617883844
 30
0.0
 11
373.2542599366
 21
148.5617883844
 31
0.0
  0
LINE
  5
228
330
1F
100
AcDbEntity
  8
0
  6
Continuous
 62
     7
370
    25
100
AcDbLine
 10
373.2542599366
 20
148.5617883844
 30
0.0
 11
345.8542599366
 21
148.5617883844
 31
0.0
  0
LINE
  5
229
330
1F
100
AcDbEntity
  8
0
  6
Continuous
 62
     7
370
    25
100
AcDbLine
 10
373.2542599366
 20
162.0617883844
 30
0.0
 11
345.8542599366
 21
162.0617883844
 31
0.0
  0
LINE
  5
22A
330
1F
100
AcDbEntity
  8
0
  6
Continuous
 62
     7
370
    25
100
AcDbLine
 10
345.8542599366
 20
162.0617883844
 30
0.0
 11
345.8542599366
 21
148.5617883844
 31
0.0
  0
LINE
  5
22B
330
1F
100
AcDbEntity
  8
0
  6
Continuous
 62
     7
370
    25
100
AcDbLine
 10
373.2542599366
 20
67.1617883844
 30
0.0
 11
345.8542599366
 21
67.1617883844
 31
0.0
  0
LINE
  5
22C
330
1F
100
AcDbEntity
  8
0
  6
Continuous
 62
     7
370
    25
100
AcDbLine
 10
373.2542599366
 20
67.1617883844
 30
0.0
 11
373.2542599366
 21
53.6617883844
 31
0.0
  0
LINE
  5
22D
330
1F
100
AcDbEntity
  8
0
  6
Continuous
 62
     7
370
    25
100
AcDbLine
 10
345.8542599366
 20
67.1617883844
 30
0.0
 11
345.8542599366
 21
53.6617883844
 31
0.0
  0
LINE
  5
22E
330
1F
100
AcDbEntity
  8
0
  6
Continuous
 62
     7
370
    25
100
AcDbLine
 10
373.2542599366
 20
53.6617883844
 30
0.0
 11
345.8542599366
 21
53.6617883844
 31
0.0
  0
LINE
  5
22F
330
1F
100
AcDbEntity
  8
0
  6
Continuous
 62
     7
370
    25
100
AcDbLine
 10
340.2542599366
 20
162.7617883844
 30
0.0
 11
340.2542599366
 21
162.3617883844
 31
0.0
  0
LINE
  5
230
330
1F
100
AcDbEntity
  8
0
  6
Continuous
 62
     7
370
    25
100
AcDbLine
 10
340.2542599366
 20
162.7617883844
 30
0.0
 11
373.2542599366
 21
162.7617883844
 31
0.0
  0
LINE
  5
231
330
1F
100
AcDbEntity
  8
0
  6
Continuous
 62
     7
370
    25
100
AcDbLine
 10
373.2542599366
 20
162.3617883844
 30
0.0
 11
373.2542599366
 21
162.7617883844
 31
0.0
  0
LINE
  5
232
330
1F
100
AcDbEntity
  8
0
  6
Continuous
 62
     7
370
    25
100
AcDbLine
 10
340.2542599366
 20
162.3617883844
 30
0.0
 11
373.2542599366
 21
162.3617883844
 31
0.0
  0
LINE
  5
233
330
1F
100
AcDbEntity
  8
0
  6
Continuous
 62
     7
370
    25
100
AcDbLine
 10
340.2542599366
 20
53.3617883844
 30
0.0
 11
340.2542599366
 21
52.9617883844
 31
0.0
  0
LINE
  5
234
330
1F
100
AcDbEntity
  8
0
  6
Continuous
 62
     7
370
    25
100
AcDbLine
 10
373.2542599366
 20
52.9617883844
 30
0.0
 11
373.2542599366
 21
53.3617883844
 31
0.0
  0
LINE
  5
235
330
1F
100
AcDbEntity
  8
0
  6
Continuous
 62
     7
370
    25
100
AcDbLine
 10
373.2542599366
 20
52.9617883844
 30
0.0
 11
340.2542599366
 21
52.9617883844
 31
0.0
  0
LINE
  5
236
330
1F
100
AcDbEntity
  8
0
  6
Continuous
 62
     7
370
    25
100
AcDbLine
 10
373.2542599366
 20
53.3617883844
 30
0.0
 11
340.2542599366
 21
53.3617883844
 31
0.0
  0
LINE
  5
237
330
1F
100
AcDbEntity
  8
0
  6
Continuous
 62
     7
370
    25
100
AcDbLine
 10
345.8542599366
 20
162.0617883844
 30
0.0
 11
345.8542599366
 21
153.4807286626
 31
0.0
  0
LINE
  5
238
330
1F
100
AcDbEntity
  8
0
  6
Continuous
 62
     7
370
    25
100
AcDbLine
 10
308.8542599366
 20
154.2557681772
 30
0.0
 11
308.8542599366
 21
160.0617883844
 31
0.0
  0
LINE
  5
239
330
1F
100
AcDbEntity
  8
0
  6
Continuous
 62
     7
370
    25
100
AcDbLine
 10
273.8542599366
 20
160.0617883844
 30
0.0
 11
308.8542599366
 21
160.0617883844
 31
0.0
  0
LINE
  5
23A
330
1F
100
AcDbEntity
  8
0
  6
Continuous
 62
     7
370
    25
100
AcDbLine
 10
273.8542599366
 20
162.0617883844
 30
0.0
 11
273.8542599366
 21
160.0617883844
 31
0.0
  0
LINE
  5
23B
330
1F
100
AcDbEntity
  8
0
  6
Continuous
 62
     7
370
    25
100
AcDbLine
 10
273.8542599366
 20
162.0617883844
 30
0.0
 11
345.8542599366
 21
162.0617883844
 31
0.0
  0
LINE
  5
23C
330
1F
100
AcDbEntity
  8
0
  6
Continuous
 62
     7
370
    25
100
AcDbLine
 10
345.8542599366
 20
153.4807286626
 30
0.0
 11
308.8542599366
 21
154.2557681772
 31
0.0
  0
LINE
  5
23D
330
1F
100
AcDbEntity
  8
0
  6
Continuous
 62
     7
370
    25
100
AcDbLine
 10
308.8542599366
 20
55.6617883844
 30
0.0
 11
308.8542599366
 21
61.4678085915
 31
0.0
  0
LINE
  5
23E
330
1F
100
AcDbEntity
  8
0
  6
Continuous
 62
     7
370
    25
100
AcDbLine
 10
345.8542599366
 20
62.2428481062
 30
0.0
 11
345.8542599366
 21
53.6617883844
 31
0.0
  0
LINE
  5
23F
330
1F
100
AcDbEntity
  8
0
  6
Continuous
 62
     7
370
    25
100
AcDbLine
 10
345.8542599366
 20
53.6617883844
 30
0.0
 11
273.8542599366
 21
53.6617883844
 31
0.0
  0
LINE
  5
240
330
1F
100
AcDbEntity
  8
0
  6
Continuous
 62
     7
370
    25
100
AcDbLine
 10
308.8542599366
 20
55.6617883844
 30
0.0
 11
273.8542599366
 21
55.6617883844
 31
0.0
  0
LINE
  5
241
330
1F
100
AcDbEntity
  8
0
  6
Continuous
 62
     7
370
    25
100
AcDbLine
 10
273.8542599366
 20
55.6617883844
 30
0.0
 11
273.8542599366
 21
53.6617883844
 31
0.0
  0
LINE
  5
242
330
1F
100
AcDbEntity
  8
0
  6
Continuous
 62
     7
370
    25
100
AcDbLine
 10
308.8542599366
 20
61.4678085915
 30
0.0
 11
345.8542599366
 21
62.2428481062
 31
0.0
  0
LINE
  5
243
330
1F
100
AcDbEntity
  8
0
  6
Continuous
 62
     7
370
    25
100
AcDbLine
 10
273.8542599366
 20
60.7346631047
 30
0.0
 11
273.8542599366
 21
55.6617883844
 31
0.0
  0
LINE
  5
244
330
1F
100
AcDbEntity
  8
0
  6
Continuous
 62
     7
370
    25
100
AcDbLine
 10
273.8542599366
 20
60.7346631047
 30
0.0
 11
308.8542599366
 21
61.4678085915
 31
0.0
  0
LINE
  5
245
330
1F
100
AcDbEntity
  8
0
  6
Continuous
 62
     7
370
    25
100
AcDbLine
 10
273.8542599366
 20
160.0617883844
 30
0.0
 11
273.8542599366
 21
154.9889136641
 31
0.0
  0
LINE
  5
246
330
1F
100
AcDbEntity
  8
0
  6
Continuous
 62
     7
370
    25
100
AcDbLine
 10
308.8542599366
 20
154.2557681772
 30
0.0
 11
273.8542599366
 21
154.9889136641
 31
0.0
  0
LINE
  5
247
330
1F
100
AcDbEntity
  8
0
  6
Continuous
 62
     7
370
    25
100
AcDbLine
 10
273.8542599366
 20
72.8617883844
 30
0.0
 11
308.8542599366
 21
82.8617883844
 31
0.0
  0
LINE
  5
248
330
1F
100
AcDbEntity
  8
0
  6
Continuous
 62
     7
370
    25
100
AcDbLine
 10
308.8542599366
 20
82.8617883844
 30
0.0
 11
308.8542599366
 21
132.8617883844
 31
0.0
  0
LINE
  5
249
330
1F
100
AcDbEntity
  8
0
  6
Continuous
 62
     7
370
    25
100
AcDbLine
 10
308.8542599366
 20
132.8617883844
 30
0.0
 11
273.8542599366
 21
142.8617883844
 31
0.0
  0
LINE
  5
24A
330
1F
100
AcDbEntity
  8
0
  6
Continuous
 62
     7
370
    25
100
AcDbLine
 10
345.8542599366
 20
141.6953915723
 30
0.0
 11
345.8542599366
 21
140.9953915723
 31
0.0
  0
LINE
  5
24B
330
1F
100
AcDbEntity
  8
0
  6
Continuous
 62
     7
370
    25
100
AcDbLine
 10
345.8542599366
 20
140.4953915723
 30
0.0
 11
345.8542599366
 21
75.2281851964
 31
0.0
  0
LINE
  5
24C
330
1F
100
AcDbEntity
  8
0
  6
Continuous
 62
     7
370
    25
100
AcDbLine
 10
345.8542599366
 20
74.7281851964
 30
0.0
 11
345.8542599366
 21
74.0281851964
 31
0.0
  0
LINE
  5
24D
330
1F
100
AcDbEntity
  8
0
  6
Continuous
 62
     7
370
    25
100
AcDbLine
 10
273.8542599366
 20
142.8617883844
 30
0.0
 11
273.8542599366
 21
154.9889136641
 31
0.0
  0
LINE
  5
24E
330
1F
100
AcDbEntity
  8
0
  6
Continuous
 62
     7
370
    25
100
AcDbLine
 10
273.8542599366
 20
60.7346631047
 30
0.0
 11
273.8542599366
 21
72.8617883844
 31
0.0
  0
LINE
  5
24F
330
1F
100
AcDbEntity
  8
0
  6
Continuous
 62
     7
370
    25
100
AcDbLine
 10
273.8542599366
 20
142.8617883844
 30
0.0
 11
273.8542599366
 21
72.8617883844
 31
0.0
  0
LINE
  5
250
330
1F
100
AcDbEntity
  8
0
  6
Continuous
 62
     7
370
    25
100
AcDbLine
 10
340.7233067762
 20
140.9953915723
 30
0.0
 11
340.7233067762
 21
140.4953915723
 31
0.0
  0
LINE
  5
251
330
1F
100
AcDbEntity
  8
0
  6
Continuous
 62
     7
370
    25
100
AcDbLine
 10
340.7233067762
 20
140.9953915723
 30
0.0
 11
340.8542599366
 21
140.9953915723
 31
0.0
  0
LINE
  5
252
330
1F
100
AcDbEntity
  8
0
  6
Continuous
 62
     7
370
    25
100
AcDbLine
 10
345.1542599366
 20
140.9953915723
 30
0.0
 11
353.7233067762
 21
140.9953915723
 31
0.0
  0
LINE
  5
253
330
1F
100
AcDbEntity
  8
0
  6
Continuous
 62
     7
370
    25
100
AcDbLine
 10
353.7233067762
 20
140.9953915723
 30
0.0
 11
353.7233067762
 21
140.4953915723
 31
0.0
  0
LINE
  5
254
330
1F
100
AcDbEntity
  8
0
  6
Continuous
 62
     7
370
    25
100
AcDbLine
 10
340.7233067762
 20
140.4953915723
 30
0.0
 11
353.7233067762
 21
140.4953915723
 31
0.0
  0
LINE
  5
255
330
1F
100
AcDbEntity
  8
0
  6
Continuous
 62
     7
370
    25
100
AcDbLine
 10
353.7233067762
 20
74.7281851964
 30
0.0
 11
353.7233067762
 21
75.2281851964
 31
0.0
  0
LINE
  5
256
330
1F
100
AcDbEntity
  8
0
  6
Continuous
 62
     7
370
    25
100
AcDbLine
 10
353.7233067762
 20
74.7281851964
 30
0.0
 11
345.1542599366
 21
74.7281851964
 31
0.0
  0
LINE
  5
257
330
1F
100
AcDbEntity
  8
0
  6
Continuous
 62
     7
370
    25
100
AcDbLine
 10
340.8542599366
 20
74.7281851964
 30
0.0
 11
340.7233067762
 21
74.7281851964
 31
0.0
  0
LINE
  5
258
330
1F
100
AcDbEntity
  8
0
  6
Continuous
 62
     7
370
    25
100
AcDbLine
 10
340.7233067762
 20
74.7281851964
 30
0.0
 11
340.7233067762
 21
75.2281851964
 31
0.0
  0
LINE
  5
259
330
1F
100
AcDbEntity
  8
0
  6
Continuous
 62
     7
370
    25
100
AcDbLine
 10
353.7233067762
 20
75.2281851964
 30
0.0
 11
340.7233067762
 21
75.2281851964
 31
0.0
  0
LINE
  5
25A
330
1F
100
AcDbEntity
  8
0
  6
Continuous
 62
     7
370
    25
100
AcDbLine
 10
329.5606939443
 20
152.3432682005
 30
0.0
 11
330.0240891406
 21
152.9953915723
 31
0.0
  0
LINE
  5
25B
330
1F
100
AcDbEntity
  8
0
  6
Continuous
 62
     7
370
    25
100
AcDbLine
 10
345.1859575348
 20
142.2214532582
 30
0.0
 11
330.0240891406
 21
152.9953915723
 31
0.0
  0
ARC
  5
25C
330
1F
100
AcDbEntity
  8
0
  6
Continuous
 62
     7
370
    25
100
AcDbCircle
 10
344.9542599366
 20
141.8953915723
 30
0.0
 40
0.3999999999999933
100
AcDbArc
 50
324.6026131466
 51
54.6026131466
  0
ARC
  5
25D
330
1F
100
AcDbEntity
  8
0
  6
Continuous
 62
     7
370
    25
100
AcDbCircle
 10
344.9542599366
 20
141.8953915723
 30
0.0
 40
0.3999999999999933
100
AcDbArc
 50
234.6026131466
 51
324.6026131466
  0
LINE
  5
25E
330
1F
100
AcDbEntity
  8
0
  6
Continuous
 62
     7
370
    25
100
AcDbLine
 10
344.7225623385
 20
141.5693298864
 30
0.0
 11
329.5606939443
 21
152.3432682005
 31
0.0
  0
LINE
  5
25F
330
1F
100
AcDbEntity
  8
0
  6
Continuous
 62
     7
370
    25
100
AcDbLine
 10
330.0240891406
 20
62.7281851964
 30
0.0
 11
345.1859575348
 21
73.5021235105
 31
0.0
  0
LINE
  5
260
330
1F
100
AcDbEntity
  8
0
  6
Continuous
 62
     7
370
    25
100
AcDbLine
 10
329.5606939443
 20
63.3803085682
 30
0.0
 11
344.7225623385
 21
74.1542468823
 31
0.0
  0
ARC
  5
261
330
1F
100
AcDbEntity
  8
0
  6
Continuous
 62
     7
370
    25
100
AcDbCircle
 10
344.9542599366
 20
73.8281851964
 30
0.0
 40
0.4000000000000396
100
AcDbArc
 50
35.3973868534
 51
125.3973868534
  0
ARC
  5
262
330
1F
100
AcDbEntity
  8
0
  6
Continuous
 62
     7
370
    25
100
AcDbCircle
 10
344.9542599366
 20
73.8281851964
 30
0.0
 40
0.4000000000000396
100
AcDbArc
 50
305.3973868534
 51
35.3973868534
  0
LINE
  5
263
330
1F
100
AcDbEntity
  8
0
  6
Continuous
 62
     7
370
    25
100
AcDbLine
 10
329.5606939443
 20
63.3803085682
 30
0.0
 11
330.0240891406
 21
62.7281851964
 31
0.0
  0
LINE
  5
264
330
1F
100
AcDbEntity
  8
0
  6
Continuous
 62
     7
370
    25
100
AcDbLine
 10
322.8542599366
 20
62.7281851964
 30
0.0
 11
322.8542599366
 21
62.2281851964
 31
0.0
  0
LINE
  5
265
330
1F
100
AcDbEntity
  8
0
  6
Continuous
 62
     7
370
    25
100
AcDbLine
 10
345.1542599366
 20
62.7281851964
 30
0.0
 11
322.8542599366
 21
62.7281851964
 31
0.0
  0
LINE
  5
266
330
1F
100
AcDbEntity
  8
0
  6
Continuous
 62
     7
370
    25
100
AcDbLine
 10
345.1542599366
 20
62.2281851964
 30
0.0
 11
322.8542599366
 21
62.2281851964
 31
0.0
  0
LINE
  5
267
330
1F
100
AcDbEntity
  8
0
  6
Continuous
 62
     7
370
    25
100
AcDbLine
 10
340.8542599366
 20
74.7281851964
 30
0.0
 11
345.1542599366
 21
74.7281851964
 31
0.0
  0
LINE
  5
268
330
1F
100
AcDbEntity
  8
0
  6
Continuous
 62
     7
370
    25
100
AcDbLine
 10
340.8542599366
 20
74.7281851964
 30
0.0
 11
340.8542599366
 21
74.2281851964
 31
0.0
  0
LINE
  5
269
330
1F
100
AcDbEntity
  8
0
  6
Continuous
 62
     7
370
    25
100
AcDbLine
 10
340.8542599366
 20
74.2281851964
 30
0.0
 11
345.1542599366
 21
74.2281851964
 31
0.0
  0
ARC
  5
26A
330
1F
100
AcDbEntity
  8
0
  6
Continuous
 62
     7
370
    25
100
AcDbCircle
 10
345.1542599366
 20
62.9281851964
 30
0.0
 40
0.1999999999999957
100
AcDbArc
 50
270.0
 51
0.0
  0
ARC
  5
26B
330
1F
100
AcDbEntity
  8
0
  6
Continuous
 62
     7
370
    25
100
AcDbCircle
 10
345.1542599366
 20
62.9281851964
 30
0.0
 40
0.699999999999991
100
AcDbArc
 50
272.4
 51
0.0
  0
LINE
  5
26C
330
1F
100
AcDbEntity
  8
0
  6
Continuous
 62
     7
370
    25
100
AcDbLine
 10
345.3542599366
 20
74.0281851964
 30
0.0
 11
345.3542599366
 21
62.9281851964
 31
0.0
  0
LINE
  5
26D
330
1F
100
AcDbEntity
  8
0
  6
Continuous
 62
     7
370
    25
100
AcDbLine
 10
345.8542599366
 20
74.0281851964
 30
0.0
 11
345.8542599366
 21
67.1617883844
 31
0.0
  0
ARC
  5
26E
330
1F
100
AcDbEntity
  8
0
  6
Continuous
 62
     7
370
    25
100
AcDbCircle
 10
345.1542599366
 20
74.0281851964
 30
0.0
 40
0.2000000000000455
100
AcDbArc
 50
0.0
 51
90.0
  0
ARC
  5
26F
330
1F
100
AcDbEntity
  8
0
  6
Continuous
 62
     7
370
    25
100
AcDbCircle
 10
345.1542599366
 20
74.0281851964
 30
0.0
 40
0.7000000000000455
100
AcDbArc
 50
0.0
 51
90.0
  0
LINE
  5
270
330
1F
100
AcDbEntity
  8
0
  6
Continuous
 62
     7
370
    25
100
AcDbLine
 10
345.1542599366
 20
152.9953915723
 30
0.0
 11
322.8542599366
 21
152.9953915723
 31
0.0
  0
LINE
  5
271
330
1F
100
AcDbEntity
  8
0
  6
Continuous
 62
     7
370
    25
100
AcDbLine
 10
322.8542599366
 20
152.9953915723
 30
0.0
 11
322.8542599366
 21
153.4953915723
 31
0.0
  0
LINE
  5
272
330
1F
100
AcDbEntity
  8
0
  6
Continuous
 62
     7
370
    25
100
AcDbLine
 10
345.1542599366
 20
153.4953915723
 30
0.0
 11
322.8542599366
 21
153.4953915723
 31
0.0
  0
LINE
  5
273
330
1F
100
AcDbEntity
  8
0
  6
Continuous
 62
     7
370
    25
100
AcDbLine
 10
340.8542599366
 20
140.9953915723
 30
0.0
 11
340.8542599366
 21
141.4953915723
 31
0.0
  0
LINE
  5
274
330
1F
100
AcDbEntity
  8
0
  6
Continuous
 62
     7
370
    25
100
AcDbLine
 10
340.8542599366
 20
141.4953915723
 30
0.0
 11
345.1542599366
 21
141.4953915723
 31
0.0
  0
LINE
  5
275
330
1F
100
AcDbEntity
  8
0
  6
Continuous
 62
     7
370
    25
100
AcDbLine
 10
340.8542599366
 20
140.9953915723
 30
0.0
 11
345.1542599366
 21
140.9953915723
 31
0.0
  0
LINE
  5
276
330
1F
100
AcDbEntity
  8
0
  6
Continuous
 62
     7
370
    25
100
AcDbLine
 10
345.3542599366
 20
141.6953915723
 30
0.0
 11
345.3542599366
 21
152.7953915723
 31
0.0
  0
LINE
  5
277
330
1F
100
AcDbEntity
  8
0
  6
Continuous
 62
     7
370
    25
100
AcDbLine
 10
345.8542599366
 20
141.6953915723
 30
0.0
 11
345.8542599366
 21
148.5617883844
 31
0.0
  0
ARC
  5
278
330
1F
100
AcDbEntity
  8
0
  6
Continuous
 62
     7
370
    25
100
AcDbCircle
 10
345.1542599366
 20
152.7953915723
 30
0.0
 40
0.1999999999999886
100
AcDbArc
 50
0.0
 51
90.0
  0
ARC
  5
279
330
1F
100
AcDbEntity
  8
0
  6
Continuous
 62
     7
370
    25
100
AcDbCircle
 10
345.1542599366
 20
152.7953915723
 30
0.0
 40
0.6999999999999981
100
AcDbArc
 50
0.0
 51
87.6
  0
ARC
  5
27A
330
1F
100
AcDbEntity
  8
0
  6
Continuous
 62
     7
370
    25
100
AcDbCircle
 10
345.1542599366
 20
141.6953915723
 30
0.0
 40
0.1999999999999886
100
AcDbArc
 50
270.0
 51
0.0
  0
ARC
  5
27B
330
1F
100
AcDbEntity
  8
0
  6
Continuous
 62
     7
370
    25
100
AcDbCircle
 10
345.1542599366
 20
141.6953915723
 30
0.0
 40
0.6999999999999886
100
AcDbArc
 50
270.0
 51
0.0
  0
LINE
  5
27C
330
1F
100
AcDbEntity
  8
0
  6
PHANTOM
 62
     1
370
    18
100
AcDbLine
 10
345.1542599366
 20
62.2281851964
 30
0.0
 11
345.1542599366
 21
62.7281851964
 31
0.0
  0
LINE
  5
27D
330
1F
100
AcDbEntity
  8
0
  6
PHANTOM
 62
     1
370
    18
100
AcDbLine
 10
345.1542599366
 20
74.2281851964
 30
0.0
 11
345.1542599366
 21
74.7281851964
 31
0.0
  0
LINE
  5
27E
330
1F
100
AcDbEntity
  8
0
  6
PHANTOM
 62
     1
370
    18
100
AcDbLine
 10
345.3542599366
 20
62.9281851964
 30
0.0
 11
345.8542599366
 21
62.9281851964
 31
0.0
  0
LINE
  5
27F
330
1F
100
AcDbEntity
  8
0
  6
PHANTOM
 62
     1
370
    18
100
AcDbLine
 10
345.8542599366
 20
74.0281851964
 30
0.0
 11
345.3542599366
 21
74.0281851964
 31
0.0
  0
LINE
  5
280
330
1F
100
AcDbEntity
  8
0
  6
PHANTOM
 62
     1
370
    18
100
AcDbLine
 10
345.1542599366
 20
152.9953915723
 30
0.0
 11
345.1542599366
 21
153.4953915723
 31
0.0
  0
LINE
  5
281
330
1F
100
AcDbEntity
  8
0
  6
PHANTOM
 62
     1
370
    18
100
AcDbLine
 10
345.1542599366
 20
140.9953915723
 30
0.0
 11
345.1542599366
 21
141.4953915723
 31
0.0
  0
LINE
  5
282
330
1F
100
AcDbEntity
  8
0
  6
PHANTOM
 62
     1
370
    18
100
AcDbLine
 10
345.3542599366
 20
141.6953915723
 30
0.0
 11
345.8542599366
 21
141.6953915723
 31
0.0
  0
LINE
  5
283
330
1F
100
AcDbEntity
  8
0
  6
PHANTOM
 62
     1
370
    18
100
AcDbLine
 10
345.8542599366
 20
152.7953915723
 30
0.0
 11
345.3542599366
 21
152.7953915723
 31
0.0
  0
HATCH
  5
284
330
1F
100
AcDbEntity
  8
O-TEKST
  6
Continuous
370
    18
100
AcDbHatch
 10
0.0
 20
0.0
 30
0.0
210
0.0
220
0.0
230
1.0
  2
ANSI34
 70
     0
 71
     0
 91
        1
 92
        0
 93
        6
 72
     1
 10
345.854259936642
 20
162.0617883843717
 11
273.854259936642
 21
162.0617883843717
 72
     1
 10
273.854259936642
 20
162.0617883843717
 11
273.854259936642
 21
160.0617883843717
 72
     1
 10
273.854259936642
 20
160.0617883843717
 11
308.854259936642
 21
160.0617883843717
 72
     1
 10
308.854259936642
 20
160.0617883843717
 11
308.854259936642
 21
154.2557681772223
 72
     1
 10
308.854259936642
 20
154.2557681772223
 11
345.854259936642
 21
153.4807286625649
 72
     1
 10
345.854259936642
 20
153.4807286625649
 11
345.854259936642
 21
162.0617883843717
 97
        0
 75
     0
 76
     1
 52
0.0
 41
1.0
 77
     0
 78
     4
 53
45.0
 43
0.0
 44
0.0
 45
-13.47038418160373
 46
13.47038418160373
 79
     0
 53
45.0
 43
4.49013
 44
0.0
 45
-13.47038418160373
 46
13.47038418160373
 79
     0
 53
45.0
 43
8.98026
 44
0.0
 45
-13.47038418160373
 46
13.47038418160373
 79
     0
 53
45.0
 43
13.4704
 44
0.0
 45
-13.47038418160373
 46
13.47038418160373
 79
     0
 98
        1
 10
0.0
 20
0.0
  0
HATCH
  5
285
330
1F
100
AcDbEntity
  8
O-TEKST
  6
Continuous
370
    18
100
AcDbHatch
 10
0.0
 20
0.0
 30
0.0
210
0.0
220
0.0
230
1.0
  2
ANSI34
 70
     0
 71
     0
 91
        1
 92
        0
 93
        6
 72
     1
 10
308.854259936642
 20
55.66178838437165
 11
273.854259936642
 21
55.66178838437165
 72
     1
 10
273.854259936642
 20
55.66178838437165
 11
273.854259936642
 21
53.66178838437165
 72
     1
 10
273.854259936642
 20
53.66178838437165
 11
345.854259936642
 21
53.66178838437165
 72
     1
 10
345.854259936642
 20
53.66178838437165
 11
345.854259936642
 21
62.24284810617844
 72
     1
 10
345.854259936642
 20
62.24284810617844
 11
308.854259936642
 21
61.46780859152103
 72
     1
 10
308.854259936642
 20
61.46780859152103
 11
308.854259936642
 21
55.66178838437165
 97
        0
 75
     0
 76
     1
 52
0.0
 41
1.0
 77
     0
 78
     4
 53
45.0
 43
0.0
 44
0.0
 45
-13.47038418160373
 46
13.47038418160373
 79
     0
 53
45.0
 43
4.49013
 44
0.0
 45
-13.47038418160373
 46
13.47038418160373
 79
     0
 53
45.0
 43
8.98026
 44
0.0
 45
-13.47038418160373
 46
13.47038418160373
 79
     0
 53
45.0
 43
13.4704
 44
0.0
 45
-13.47038418160373
 46
13.47038418160373
 79
     0
 98
        1
 10
0.0
 20
0.0
  0
HATCH
  5
286
330
1F
100
AcDbEntity
  8
O-TEKST
  6
Continuous
370
    18
100
AcDbHatch
 10
0.0
 20
0.0
 30
0.0
210
0.0
220
0.0
230
1.0
  2
ANSI34
 70
     0
 71
     0
 91
        1
 92
        0
 93
        4
 72
     1
 10
340.254259936642
 20
52.96178838437167
 11
373.254259936642
 21
52.96178838437167
 72
     1
 10
373.254259936642
 20
52.96178838437167
 11
373.254259936642
 21
53.36178838437166
 72
     1
 10
373.254259936642
 20
53.36178838437166
 11
340.254259936642
 21
53.36178838437166
 72
     1
 10
340.254259936642
 20
53.36178838437166
 11
340.254259936642
 21
52.96178838437167
 97
        0
 75
     0
 76
     1
 52
0.0
 41
1.0
 77
     0
 78
     4
 53
45.0
 43
0.0
 44
0.0
 45
-13.47038418160373
 46
13.47038418160373
 79
     0
 53
45.0
 43
4.49013
 44
0.0
 45
-13.47038418160373
 46
13.47038418160373
 79
     0
 53
45.0
 43
8.98026
 44
0.0
 45
-13.47038418160373
 46
13.47038418160373
 79
     0
 53
45.0
 43
13.4704
 44
0.0
 45
-13.47038418160373
 46
13.47038418160373
 79
     0
 98
        1
 10
0.0
 20
0.0
  0
HATCH
  5
287
330
1F
100
AcDbEntity
  8
O-TEKST
  6
Continuous
370
    18
100
AcDbHatch
 10
0.0
 20
0.0
 30
0.0
210
0.0
220
0.0
230
1.0
  2
ANSI34
 70
     0
 71
     0
 91
        1
 92
        0
 93
        4
 72
     1
 10
340.254259936642
 20
162.3617883843717
 11
373.254259936642
 21
162.3617883843717
 72
     1
 10
373.254259936642
 20
162.3617883843717
 11
373.254259936642
 21
162.7617883843717
 72
     1
 10
373.254259936642
 20
162.7617883843717
 11
340.254259936642
 21
162.7617883843717
 72
     1
 10
340.254259936642
 20
162.7617883843717
 11
340.254259936642
 21
162.3617883843717
 97
        0
 75
     0
 76
     1
 52
0.0
 41
1.0
 77
     0
 78
     4
 53
45.0
 43
0.0
 44
0.0
 45
-13.47038418160373
 46
13.47038418160373
 79
     0
 53
45.0
 43
4.49013
 44
0.0
 45
-13.47038418160373
 46
13.47038418160373
 79
     0
 53
45.0
 43
8.98026
 44
0.0
 45
-13.47038418160373
 46
13.47038418160373
 79
     0
 53
45.0
 43
13.4704
 44
0.0
 45
-13.47038418160373
 46
13.47038418160373
 79
     0
 98
        1
 10
0.0
 20
0.0
  0
INSERT
  5
28D
330
1F
100
AcDbEntity
  8
O-TEKST
100
AcDbBlockReference
  2
SW_NOTE_1
 10
302.7922820554
 20
30.5958853508
 30
0.0
  0
LINE
  5
28E
330
1F
100
AcDbEntity
  8
0
  6
Continuous
 62
     7
370
    25
100
AcDbLine
 10
381.5946445954
 20
317.7998931657
 30
0.0
 11
378.0591106895
 21
319.8409134452
 31
0.0
  0
LINE
  5
28F
330
1F
100
AcDbEntity
  8
0
  6
Continuous
 62
     7
370
    25
100
AcDbLine
 10
307.237935925
 20
359.9552522351
 30
0.0
 11
336.0206844547
 21
343.3393251888
 31
0.0
  0
ARC
  5
290
330
1F
100
AcDbEntity
  8
0
  6
Continuous
 62
     7
370
    25
100
AcDbCircle
 10
370.485055668
 20
382.5721837234
 30
0.0
 40
0.3074043815818551
100
AcDbArc
 50
242.6096722366
 51
297.3903277635
  0
ARC
  5
291
330
1F
100
AcDbEntity
  8
0
  6
Continuous
 62
     7
370
    25
100
AcDbCircle
 10
371.5302231371
 20
383.0340088071
 30
0.0
 40
0.0436615316834163
100
AcDbArc
 50
290.7834207994
 51
69.2165792006
  0
LINE
  5
292
330
1F
100
AcDbEntity
  8
0
  6
Continuous
 62
     7
370
    25
100
AcDbLine
 10
371.5457158397
 20
383.0748292127
 30
0.0
 11
369.4951061743
 21
384.2586209748
 31
0.0
  0
ARC
  5
293
330
1F
100
AcDbEntity
  8
0
  6
Continuous
 62
     7
370
    25
100
AcDbCircle
 10
369.4243954962
 20
384.1221498663
 30
0.0
 40
0.153702190791394
100
AcDbArc
 50
62.6096722366
 51
117.3903277634
  0
LINE
  5
294
330
1F
100
AcDbEntity
  8
0
  6
Continuous
 62
     7
370
    25
100
AcDbLine
 10
369.3536848181
 20
384.2586209748
 30
0.0
 11
368.3637353244
 21
383.6871352965
 31
0.0
  0
ARC
  5
295
330
1F
100
AcDbEntity
  8
0
  6
Continuous
 62
     7
370
    25
100
AcDbCircle
 10
368.3792280271
 20
383.6463148909
 30
0.0
 40
0.0436615316833228
100
AcDbArc
 50
110.7834207993
 51
249.2165792007
  0
LINE
  5
296
330
1F
100
AcDbEntity
  8
0
  6
Continuous
 62
     7
370
    25
100
AcDbLine
 10
368.3637353244
 20
383.6054944854
 30
0.0
 11
370.4143449898
 21
382.4217027232
 31
0.0
  0
ARC
  5
297
330
1F
100
AcDbEntity
  8
0
  6
Continuous
 62
     7
370
    25
100
AcDbCircle
 10
370.485055668
 20
382.5581738317
 30
0.0
 40
0.1537021907908649
100
AcDbArc
 50
242.6096722366
 51
297.3903277635
  0
LINE
  5
298
330
1F
100
AcDbEntity
  8
0
  6
Continuous
 62
     7
370
    25
100
AcDbLine
 10
370.5557663461
 20
382.4217027232
 30
0.0
 11
371.5457158397
 21
382.9931884015
 31
0.0
  0
LINE
  5
299
330
1F
100
AcDbEntity
  8
0
  6
Continuous
 62
     7
370
    25
100
AcDbLine
 10
371.7578478741
 20
383.1156496183
 30
0.0
 11
369.5658168524
 21
384.3810821916
 31
0.0
  0
ARC
  5
29A
330
1F
100
AcDbEntity
  8
0
  6
Continuous
 62
     7
370
    25
100
AcDbCircle
 10
371.7268624687
 20
383.0340088071
 30
0.0
 40
0.0873230633668931
100
AcDbArc
 50
290.7834207995
 51
69.2165792005
  0
LINE
  5
29B
330
1F
100
AcDbEntity
  8
0
  6
Continuous
 62
     7
370
    25
100
AcDbLine
 10
370.6264770242
 20
382.2992415064
 30
0.0
 11
371.7578478741
 21
382.9523679959
 31
0.0
  0
LINE
  5
29C
330
1F
100
AcDbEntity
  8
0
  6
Continuous
 62
     7
370
    25
100
AcDbLine
 10
368.15160329
 20
383.5646740798
 30
0.0
 11
370.3436343117
 21
382.2992415064
 31
0.0
  0
ARC
  5
29D
330
1F
100
AcDbEntity
  8
0
  6
Continuous
 62
     7
370
    25
100
AcDbCircle
 10
368.1825886954
 20
383.6463148909
 30
0.0
 40
0.0873230633668931
100
AcDbArc
 50
110.7834207995
 51
249.2165792005
  0
LINE
  5
29E
330
1F
100
AcDbEntity
  8
0
  6
Continuous
 62
     7
370
    25
100
AcDbLine
 10
369.2829741399
 20
384.3810821916
 30
0.0
 11
368.15160329
 21
383.7279557021
 31
0.0
  0
ARC
  5
29F
330
1F
100
AcDbEntity
  8
0
  6
Continuous
 62
     7
370
    25
100
AcDbCircle
 10
369.4243954962
 20
384.1081399746
 30
0.0
 40
0.3074043815824851
100
AcDbArc
 50
62.6096722366
 51
117.3903277634
  0
ARC
  5
2A0
330
1F
100
AcDbEntity
  8
0
  6
Continuous
 62
     7
370
    25
100
AcDbCircle
 10
393.2538940222
 20
395.7163543238
 30
0.0
 40
0.3074043815826122
100
AcDbArc
 50
242.6096722366
 51
297.3903277634
  0
ARC
  5
2A1
330
1F
100
AcDbEntity
  8
0
  6
Continuous
 62
     7
370
    25
100
AcDbCircle
 10
391.1480663813
 20
396.7904854913
 30
0.0
 40
0.0436615316835098
100
AcDbArc
 50
110.7834207995
 51
249.2165792005
  0
LINE
  5
2A2
330
1F
100
AcDbEntity
  8
0
  6
Continuous
 62
     7
370
    25
100
AcDbLine
 10
391.1325736786
 20
396.7496650857
 30
0.0
 11
393.183183344
 21
395.5658733236
 31
0.0
  0
ARC
  5
2A3
330
1F
100
AcDbEntity
  8
0
  6
Continuous
 62
     7
370
    25
100
AcDbCircle
 10
393.2538940222
 20
395.7023444321
 30
0.0
 40
0.1537021907911416
100
AcDbArc
 50
242.6096722366
 51
297.3903277634
  0
LINE
  5
2A4
330
1F
100
AcDbEntity
  8
0
  6
Continuous
 62
     7
370
    25
100
AcDbLine
 10
393.3246047003
 20
395.5658733236
 30
0.0
 11
394.3145541939
 21
396.1373590018
 31
0.0
  0
ARC
  5
2A5
330
1F
100
AcDbEntity
  8
0
  6
Continuous
 62
     7
370
    25
100
AcDbCircle
 10
394.2990614913
 20
396.1781794074
 30
0.0
 40
0.04366153168353
100
AcDbArc
 50
290.7834207996
 51
69.2165792004
  0
LINE
  5
2A6
330
1F
100
AcDbEntity
  8
0
  6
Continuous
 62
     7
370
    25
100
AcDbLine
 10
394.3145541939
 20
396.218999813
 30
0.0
 11
392.2639445285
 21
397.4027915752
 31
0.0
  0
ARC
  5
2A7
330
1F
100
AcDbEntity
  8
0
  6
Continuous
 62
     7
370
    25
100
AcDbCircle
 10
392.1932338504
 20
397.2663204667
 30
0.0
 40
0.1537021907912687
100
AcDbArc
 50
62.6096722366
 51
117.3903277634
  0
LINE
  5
2A8
330
1F
100
AcDbEntity
  8
0
  6
Continuous
 62
     7
370
    25
100
AcDbLine
 10
392.1225231723
 20
397.4027915752
 30
0.0
 11
391.1325736786
 21
396.8313058969
 31
0.0
  0
LINE
  5
2A9
330
1F
100
AcDbEntity
  8
0
  6
Continuous
 62
     7
370
    25
100
AcDbLine
 10
390.9204416442
 20
396.7088446801
 30
0.0
 11
393.1124726659
 21
395.4434121068
 31
0.0
  0
ARC
  5
2AA
330
1F
100
AcDbEntity
  8
0
  6
Continuous
 62
     7
370
    25
100
AcDbCircle
 10
390.9514270496
 20
396.7904854913
 30
0.0
 40
0.087323063366873
100
AcDbArc
 50
110.7834207995
 51
249.2165792005
  0
LINE
  5
2AB
330
1F
100
AcDbEntity
  8
0
  6
Continuous
 62
     7
370
    25
100
AcDbLine
 10
392.0518124941
 20
397.5252527919
 30
0.0
 11
390.9204416442
 21
396.8721263025
 31
0.0
  0
ARC
  5
2AC
330
1F
100
AcDbEntity
  8
0
  6
Continuous
 62
     7
370
    25
100
AcDbCircle
 10
392.1932338504
 20
397.2523105749
 30
0.0
 40
0.307404381582386
100
AcDbArc
 50
62.6096722366
 51
117.3903277634
  0
LINE
  5
2AD
330
1F
100
AcDbEntity
  8
0
  6
Continuous
 62
     7
370
    25
100
AcDbLine
 10
394.5266862283
 20
396.2598202186
 30
0.0
 11
392.3346552066
 21
397.5252527919
 31
0.0
  0
ARC
  5
2AE
330
1F
100
AcDbEntity
  8
0
  6
Continuous
 62
     7
370
    25
100
AcDbCircle
 10
394.4957008229
 20
396.1781794074
 30
0.0
 40
0.087323063366873
100
AcDbArc
 50
290.7834207995
 51
69.2165792005
  0
LINE
  5
2AF
330
1F
100
AcDbEntity
  8
0
  6
Continuous
 62
     7
370
    25
100
AcDbLine
 10
393.3953153784
 20
395.4434121068
 30
0.0
 11
394.5266862283
 21
396.0965385962
 31
0.0
  0
ARC
  5
2B0
330
1F
100
AcDbEntity
  8
0
  6
Continuous
 62
     7
370
    25
100
AcDbCircle
 10
332.0184467714
 20
360.3658830818
 30
0.0
 40
0.3074043815826627
100
AcDbArc
 50
242.6096722366
 51
297.3903277634
  0
ARC
  5
2B1
330
1F
100
AcDbEntity
  8
0
  6
Continuous
 62
     7
370
    25
100
AcDbCircle
 10
333.0636142405
 20
360.8277081655
 30
0.0
 40
0.0436615316835098
100
AcDbArc
 50
290.7834207995
 51
69.2165792005
  0
LINE
  5
2B2
330
1F
100
AcDbEntity
  8
0
  6
Continuous
 62
     7
370
    25
100
AcDbLine
 10
333.0791069432
 20
360.8685285711
 30
0.0
 11
331.0284972777
 21
362.0523203332
 31
0.0
  0
ARC
  5
2B3
330
1F
100
AcDbEntity
  8
0
  6
Continuous
 62
     7
370
    25
100
AcDbCircle
 10
330.9577865996
 20
361.9158492247
 30
0.0
 40
0.1537021907907379
100
AcDbArc
 50
62.6096722365
 51
117.3903277635
  0
LINE
  5
2B4
330
1F
100
AcDbEntity
  8
0
  6
Continuous
 62
     7
370
    25
100
AcDbLine
 10
330.8870759215
 20
362.0523203332
 30
0.0
 11
329.8971264278
 21
361.480834655
 31
0.0
  0
ARC
  5
2B5
330
1F
100
AcDbEntity
  8
0
  6
Continuous
 62
     7
370
    25
100
AcDbCircle
 10
329.9126191305
 20
361.4400142494
 30
0.0
 40
0.0436615316834768
100
AcDbArc
 50
110.7834207996
 51
249.2165792004
  0
LINE
  5
2B6
330
1F
100
AcDbEntity
  8
0
  6
Continuous
 62
     7
370
    25
100
AcDbLine
 10
329.8971264278
 20
361.3991938438
 30
0.0
 11
331.9477360933
 21
360.2154020816
 31
0.0
  0
ARC
  5
2B7
330
1F
100
AcDbEntity
  8
0
  6
Continuous
 62
     7
370
    25
100
AcDbCircle
 10
332.0184467714
 20
360.3518731901
 30
0.0
 40
0.1537021907908649
100
AcDbArc
 50
242.6096722365
 51
297.3903277635
  0
LINE
  5
2B8
330
1F
100
AcDbEntity
  8
0
  6
Continuous
 62
     7
370
    25
100
AcDbLine
 10
332.0891574495
 20
360.2154020816
 30
0.0
 11
333.0791069432
 21
360.7868877599
 31
0.0
  0
LINE
  5
2B9
330
1F
100
AcDbEntity
  8
0
  6
Continuous
 62
     7
370
    25
100
AcDbLine
 10
333.2912389775
 20
360.9093489767
 30
0.0
 11
331.0992079559
 21
362.17478155
 31
0.0
  0
ARC
  5
2BA
330
1F
100
AcDbEntity
  8
0
  6
Continuous
 62
     7
370
    25
100
AcDbCircle
 10
333.2602535722
 20
360.8277081655
 30
0.0
 40
0.0873230633668528
100
AcDbArc
 50
290.7834207994
 51
69.2165792006
  0
LINE
  5
2BB
330
1F
100
AcDbEntity
  8
0
  6
Continuous
 62
     7
370
    25
100
AcDbLine
 10
332.1598681276
 20
360.0929408649
 30
0.0
 11
333.2912389775
 21
360.7460673543
 31
0.0
  0
LINE
  5
2BC
330
1F
100
AcDbEntity
  8
0
  6
Continuous
 62
     7
370
    25
100
AcDbLine
 10
329.6849943935
 20
361.3583734382
 30
0.0
 11
331.8770254152
 21
360.0929408649
 31
0.0
  0
ARC
  5
2BD
330
1F
100
AcDbEntity
  8
0
  6
Continuous
 62
     7
370
    25
100
AcDbCircle
 10
329.7159797988
 20
361.4400142494
 30
0.0
 40
0.0873230633669463
100
AcDbArc
 50
110.7834207995
 51
249.2165792005
  0
LINE
  5
2BE
330
1F
100
AcDbEntity
  8
0
  6
Continuous
 62
     7
370
    25
100
AcDbLine
 10
330.8163652434
 20
362.17478155
 30
0.0
 11
329.6849943935
 21
361.5216550605
 31
0.0
  0
ARC
  5
2BF
330
1F
100
AcDbEntity
  8
0
  6
Continuous
 62
     7
370
    25
100
AcDbCircle
 10
330.9577865996
 20
361.901839333
 30
0.0
 40
0.3074043815827636
100
AcDbArc
 50
62.6096722366
 51
117.3903277634
  0
ARC
  5
2C0
330
1F
100
AcDbEntity
  8
0
  6
Continuous
 62
     7
370
    25
100
AcDbCircle
 10
354.7872851256
 20
373.5100536822
 30
0.0
 40
0.3074043815822085
100
AcDbArc
 50
242.6096722366
 51
297.3903277634
  0
ARC
  5
2C1
330
1F
100
AcDbEntity
  8
0
  6
Continuous
 62
     7
370
    25
100
AcDbCircle
 10
352.6814574847
 20
374.5841848497
 30
0.0
 40
0.0436615316834163
100
AcDbArc
 50
110.7834207994
 51
249.2165792006
  0
LINE
  5
2C2
330
1F
100
AcDbEntity
  8
0
  6
Continuous
 62
     7
370
    25
100
AcDbLine
 10
352.6659647821
 20
374.5433644441
 30
0.0
 11
354.7165744475
 21
373.359572682
 31
0.0
  0
ARC
  5
2C3
330
1F
100
AcDbEntity
  8
0
  6
Continuous
 62
     7
370
    25
100
AcDbCircle
 10
354.7872851256
 20
373.4960437905
 30
0.0
 40
0.1537021907911921
100
AcDbArc
 50
242.6096722366
 51
297.3903277634
  0
LINE
  5
2C4
330
1F
100
AcDbEntity
  8
0
  6
Continuous
 62
     7
370
    25
100
AcDbLine
 10
354.8579958037
 20
373.359572682
 30
0.0
 11
355.8479452974
 21
373.9310583603
 31
0.0
  0
ARC
  5
2C5
330
1F
100
AcDbEntity
  8
0
  6
Continuous
 62
     7
370
    25
100
AcDbCircle
 10
355.8324525947
 20
373.9718787658
 30
0.0
 40
0.0436615316834163
100
AcDbArc
 50
290.7834207994
 51
69.2165792006
  0
LINE
  5
2C6
330
1F
100
AcDbEntity
  8
0
  6
Continuous
 62
     7
370
    25
100
AcDbLine
 10
355.8479452974
 20
374.0126991714
 30
0.0
 11
353.7973356319
 21
375.1964909336
 31
0.0
  0
ARC
  5
2C7
330
1F
100
AcDbEntity
  8
0
  6
Continuous
 62
     7
370
    25
100
AcDbCircle
 10
353.7266249538
 20
375.0600198251
 30
0.0
 40
0.1537021907912687
100
AcDbArc
 50
62.6096722366
 51
117.3903277634
  0
LINE
  5
2C8
330
1F
100
AcDbEntity
  8
0
  6
Continuous
 62
     7
370
    25
100
AcDbLine
 10
353.6559142757
 20
375.1964909336
 30
0.0
 11
352.6659647821
 21
374.6250052553
 31
0.0
  0
LINE
  5
2C9
330
1F
100
AcDbEntity
  8
0
  6
Continuous
 62
     7
370
    25
100
AcDbLine
 10
352.4538327477
 20
374.5025440385
 30
0.0
 11
354.6458637694
 21
373.2371114652
 31
0.0
  0
ARC
  5
2CA
330
1F
100
AcDbEntity
  8
0
  6
Continuous
 62
     7
370
    25
100
AcDbCircle
 10
352.4848181531
 20
374.5841848497
 30
0.0
 40
0.087323063366873
100
AcDbArc
 50
110.7834207995
 51
249.2165792005
  0
LINE
  5
2CB
330
1F
100
AcDbEntity
  8
0
  6
Continuous
 62
     7
370
    25
100
AcDbLine
 10
353.5852035976
 20
375.3189521504
 30
0.0
 11
352.4538327477
 21
374.6658256609
 31
0.0
  0
ARC
  5
2CC
330
1F
100
AcDbEntity
  8
0
  6
Continuous
 62
     7
370
    25
100
AcDbCircle
 10
353.7266249538
 20
375.0460099334
 30
0.0
 40
0.3074043815824608
100
AcDbArc
 50
62.6096722366
 51
117.3903277634
  0
LINE
  5
2CD
330
1F
100
AcDbEntity
  8
0
  6
Continuous
 62
     7
370
    25
100
AcDbLine
 10
356.0600773317
 20
374.053519577
 30
0.0
 11
353.8680463101
 21
375.3189521504
 31
0.0
  0
ARC
  5
2CE
330
1F
100
AcDbEntity
  8
0
  6
Continuous
 62
     7
370
    25
100
AcDbCircle
 10
356.0290919264
 20
373.9718787658
 30
0.0
 40
0.0873230633668528
100
AcDbArc
 50
290.7834207994
 51
69.2165792006
  0
LINE
  5
2CF
330
1F
100
AcDbEntity
  8
0
  6
Continuous
 62
     7
370
    25
100
AcDbLine
 10
354.9287064818
 20
373.2371114652
 30
0.0
 11
356.0600773317
 21
373.8902379547
 31
0.0
  0
LINE
  5
2D0
330
1F
100
AcDbEntity
  8
0
  6
Continuous
 62
     7
370
    25
100
AcDbLine
 10
346.5141357857
 20
343.6831378172
 30
0.0
 11
301.2593017898
 21
369.8081973955
 31
0.0
  0
LINE
  5
2D1
330
1F
100
AcDbEntity
  8
0
  6
Continuous
 62
     7
370
    25
100
AcDbLine
 10
301.2593017898
 20
369.8081973955
 30
0.0
 11
339.2309359395
 21
391.728755198
 31
0.0
  0
LINE
  5
2D2
330
1F
100
AcDbEntity
  8
0
  6
Continuous
 62
     7
370
    25
100
AcDbLine
 10
339.2309359395
 20
391.728755198
 30
0.0
 11
384.4857699354
 21
365.6036956197
 31
0.0
  0
LINE
  5
2D3
330
1F
100
AcDbEntity
  8
0
  6
Continuous
 62
     7
370
    25
100
AcDbLine
 10
384.4857699354
 20
365.6036956197
 30
0.0
 11
346.5141357857
 21
343.6831378172
 31
0.0
  0
LINE
  5
2D4
330
1F
100
AcDbEntity
  8
0
  6
Continuous
 62
     7
370
    25
100
AcDbLine
 10
384.9807446823
 20
365.8894384588
 30
0.0
 11
339.7259106863
 21
392.0144980371
 31
0.0
  0
LINE
  5
2D5
330
1F
100
AcDbEntity
  8
0
  6
Continuous
 62
     7
370
    25
100
AcDbLine
 10
339.7259106863
 20
392.0144980371
 30
0.0
 11
377.6975448361
 21
413.9350558396
 31
0.0
  0
LINE
  5
2D6
330
1F
100
AcDbEntity
  8
0
  6
Continuous
 62
     7
370
    25
100
AcDbLine
 10
377.6975448361
 20
413.9350558396
 30
0.0
 11
422.952378832
 21
387.8099962612
 31
0.0
  0
LINE
  5
2D7
330
1F
100
AcDbEntity
  8
0
  6
Continuous
 62
     7
370
    25
100
AcDbLine
 10
422.952378832
 20
387.8099962612
 30
0.0
 11
384.9807446823
 21
365.8894384588
 31
0.0
  0
LINE
  5
2D8
330
1F
100
AcDbEntity
  8
0
  6
Continuous
 62
     7
370
    25
100
AcDbLine
 10
384.9807446823
 20
365.8932167821
 30
0.0
 11
339.7324556435
 21
392.0144980371
 31
0.0
  0
LINE
  5
2D9
330
1F
100
AcDbEntity
  8
0
  6
Continuous
 62
     7
370
    25
100
AcDbLine
 10
422.9458338749
 20
387.8099962612
 30
0.0
 11
384.9807446823
 21
365.8932167821
 31
0.0
  0
LINE
  5
2DA
330
1F
100
AcDbEntity
  8
0
  6
Continuous
 62
     7
370
    25
100
AcDbLine
 10
377.6975448361
 20
413.9312775162
 30
0.0
 11
422.9458338749
 21
387.8099962612
 31
0.0
  0
LINE
  5
2DB
330
1F
100
AcDbEntity
  8
0
  6
Continuous
 62
     7
370
    25
100
AcDbLine
 10
339.7324556435
 20
392.0144980371
 30
0.0
 11
377.6975448361
 21
413.9312775162
 31
0.0
  0
LINE
  5
2DC
330
1F
100
AcDbEntity
  8
0
  6
Continuous
 62
     7
370
    25
100
AcDbLine
 10
423.3766429007
 20
387.8099962612
 30
0.0
 11
384.9807446823
 21
365.6445160253
 31
0.0
  0
LINE
  5
2DD
330
1F
100
AcDbEntity
  8
0
  6
Continuous
 62
     7
370
    25
100
AcDbLine
 10
384.9807446823
 20
365.6445160253
 30
0.0
 11
339.3016466176
 21
392.0144980371
 31
0.0
  0
LINE
  5
2DE
330
1F
100
AcDbEntity
  8
0
  6
Continuous
 62
     7
370
    25
100
AcDbLine
 10
339.3016466176
 20
392.0144980371
 30
0.0
 11
377.6975448361
 21
414.1799782731
 31
0.0
  0
LINE
  5
2DF
330
1F
100
AcDbEntity
  8
0
  6
Continuous
 62
     7
370
    25
100
AcDbLine
 10
377.6975448361
 20
414.1799782731
 30
0.0
 11
423.3766429007
 21
387.8099962612
 31
0.0
  0
LINE
  5
2E0
330
1F
100
AcDbEntity
  8
0
  6
Continuous
 62
     7
370
    25
100
AcDbLine
 10
423.3024583024
 20
387.5670792791
 30
0.0
 11
423.3766429007
 21
387.8099962612
 31
0.0
  0
LINE
  5
2E1
330
1F
100
AcDbEntity
  8
0
  6
Continuous
 62
     7
370
    25
100
AcDbLine
 10
384.9807446823
 20
365.5628752141
 30
0.0
 11
384.9807446823
 21
365.6445160253
 31
0.0
  0
LINE
  5
2E2
330
1F
100
AcDbEntity
  8
0
  6
Continuous
 62
     7
370
    25
100
AcDbLine
 10
339.3319152804
 20
391.9153834989
 30
0.0
 11
339.3016466176
 21
392.0144980371
 31
0.0
  0
LINE
  5
2E3
330
1F
100
AcDbEntity
  8
0
  6
Continuous
 62
     7
370
    25
100
AcDbLine
 10
384.8797653414
 20
365.5045810814
 30
0.0
 11
384.9100340042
 21
365.6036956197
 31
0.0
  0
LINE
  5
2E4
330
1F
100
AcDbEntity
  8
0
  6
Continuous
 62
     7
370
    25
100
AcDbLine
 10
346.5141357857
 20
343.3157541669
 30
0.0
 11
346.5141357857
 21
343.4382153837
 31
0.0
  0
LINE
  5
2E5
330
1F
100
AcDbEntity
  8
0
  6
Continuous
 62
     7
370
    25
100
AcDbLine
 10
384.9100340042
 20
365.6036956197
 30
0.0
 11
346.5141357857
 21
343.4382153837
 31
0.0
  0
LINE
  5
2E6
330
1F
100
AcDbEntity
  8
0
  6
Continuous
 62
     7
370
    25
100
AcDbLine
 10
346.5141357857
 20
343.6869161405
 30
0.0
 11
301.2658467469
 21
369.8081973955
 31
0.0
  0
LINE
  5
2E7
330
1F
100
AcDbEntity
  8
0
  6
Continuous
 62
     7
370
    25
100
AcDbLine
 10
384.4792249783
 20
365.6036956197
 30
0.0
 11
346.5141357857
 21
343.6869161405
 31
0.0
  0
LINE
  5
2E8
330
1F
100
AcDbEntity
  8
0
  6
Continuous
 62
     7
370
    25
100
AcDbLine
 10
339.2309359395
 20
391.7249768747
 30
0.0
 11
384.4792249783
 21
365.6036956197
 31
0.0
  0
LINE
  5
2E9
330
1F
100
AcDbEntity
  8
0
  6
Continuous
 62
     7
370
    25
100
AcDbLine
 10
301.2658467469
 20
369.8081973955
 30
0.0
 11
339.2309359395
 21
391.7249768747
 31
0.0
  0
LINE
  5
2EA
330
1F
100
AcDbEntity
  8
0
  6
Continuous
 62
     7
370
    25
100
AcDbLine
 10
346.5141357857
 20
343.4382153837
 30
0.0
 11
300.8350377211
 21
369.8081973955
 31
0.0
  0
LINE
  5
2EB
330
1F
100
AcDbEntity
  8
0
  6
Continuous
 62
     7
370
    25
100
AcDbLine
 10
300.8350377211
 20
369.8081973955
 30
0.0
 11
339.2309359395
 21
391.9736776315
 31
0.0
  0
LINE
  5
2EC
330
1F
100
AcDbEntity
  8
0
  6
Continuous
 62
     7
370
    25
100
AcDbLine
 10
339.2309359395
 20
391.9736776315
 30
0.0
 11
384.9100340042
 21
365.6036956197
 31
0.0
  0
LINE
  5
2ED
330
1F
100
AcDbEntity
  8
0
  6
Continuous
 62
     7
370
    25
100
AcDbLine
 10
300.8804407152
 20
369.6595255882
 30
0.0
 11
300.8350377211
 21
369.8081973955
 31
0.0
  0
LINE
  5
2EE
330
1F
100
AcDbEntity
  8
0
  6
Continuous
 62
     7
370
    25
100
AcDbLine
 10
425.7787758853
 20
353.1542155949
 30
0.0
 11
425.4252224947
 21
352.9501135669
 31
0.0
  0
LINE
  5
2EF
330
1F
100
AcDbEntity
  8
0
  6
Continuous
 62
     7
370
    25
100
AcDbLine
 10
425.7787758853
 20
353.1542155949
 30
0.0
 11
427.9000962289
 21
351.9296034271
 31
0.0
  0
LINE
  5
2F0
330
1F
100
AcDbEntity
  8
0
  6
Continuous
 62
     7
370
    25
100
AcDbLine
 10
427.9000962289
 20
351.9296034271
 30
0.0
 11
427.5465428383
 21
351.7255013992
 31
0.0
  0
LINE
  5
2F1
330
1F
100
AcDbEntity
  8
0
  6
Continuous
 62
     7
370
    25
100
AcDbLine
 10
425.4252224947
 20
352.9501135669
 30
0.0
 11
427.5465428383
 21
351.7255013992
 31
0.0
  0
LINE
  5
2F2
330
1F
100
AcDbEntity
  8
0
  6
Continuous
 62
     7
370
    25
100
AcDbLine
 10
427.9000962289
 20
351.9296034271
 30
0.0
 11
427.9000962289
 21
341.3145728726
 31
0.0
  0
LINE
  5
2F3
330
1F
100
AcDbEntity
  8
0
  6
Continuous
 62
     7
370
    25
100
AcDbLine
 10
427.9000962289
 20
341.3145728726
 30
0.0
 11
427.5465428383
 21
341.1104708447
 31
0.0
  0
LINE
  5
2F4
330
1F
100
AcDbEntity
  8
0
  6
Continuous
 62
     7
370
    25
100
AcDbLine
 10
427.5465428383
 20
351.7255013992
 30
0.0
 11
427.5465428383
 21
341.1104708447
 31
0.0
  0
LINE
  5
2F5
330
1F
100
AcDbEntity
  8
0
  6
Continuous
 62
     7
370
    25
100
AcDbLine
 10
425.4252224947
 20
342.3350830124
 30
0.0
 11
425.4252224947
 21
352.9501135669
 31
0.0
  0
LINE
  5
2F6
330
1F
100
AcDbEntity
  8
0
  6
Continuous
 62
     7
370
    25
100
AcDbLine
 10
427.5465428383
 20
341.1104708447
 30
0.0
 11
425.4252224947
 21
342.3350830124
 31
0.0
  0
LINE
  5
2F7
330
1F
100
AcDbEntity
  8
0
  6
Continuous
 62
     7
370
    25
100
AcDbLine
 10
426.0262632587
 20
343.0904396609
 30
0.0
 11
426.0262632587
 21
344.4785590411
 31
0.0
  0
LWPOLYLINE
  5
2F8
330
1F
100
AcDbEntity
  8
0
  6
Continuous
 62
     7
370
    25
100
AcDbPolyline
 90
       14
 70
   128
 43
0.0
 10
426.9455020743
 20
342.5597743882
 10
426.9321463696
 20
342.440467318
 10
426.8928554406
 20
342.3435141094
 10
426.8299127333
 20
342.2745493305
 10
426.746976249
 20
342.2375809636
 10
426.6488659547
 20
342.2347574758
 10
426.5412836641
 20
342.2662429579
 10
426.4304816689
 20
342.3302075882
 10
426.3228993783
 20
342.4229339749
 10
426.224789084
 20
342.5390331973
 10
426.1418525997
 20
342.6717579908
 10
426.0789098924
 20
342.8133948727
 10
426.0396189634
 20
342.9557124223
 10
426.0262632587
 20
343.0904396609
  0
LINE
  5
2F9
330
1F
100
AcDbEntity
  8
0
  6
Continuous
 62
     7
370
    25
100
AcDbLine
 10
426.9455020743
 20
343.9478937685
 30
0.0
 11
426.9455020743
 21
342.5597743882
 31
0.0
  0
LWPOLYLINE
  5
2FA
330
1F
100
AcDbEntity
  8
0
  6
Continuous
 62
     7
370
    25
100
AcDbPolyline
 90
       14
 70
   128
 43
0.0
 10
426.0262632587
 20
344.4785590411
 10
426.0396189634
 20
344.5978661114
 10
426.0789098924
 20
344.69481932
 10
426.1418525997
 20
344.7637840989
 10
426.224789084
 20
344.8007524658
 10
426.3228993783
 20
344.8035759536
 10
426.4304816689
 20
344.7720904715
 10
426.5412836641
 20
344.7081258412
 10
426.6488659547
 20
344.6153994545
 10
426.746976249
 20
344.499300232
 10
426.8299127333
 20
344.3665754386
 10
426.8928554406
 20
344.2249385567
 10
426.9321463696
 20
344.0826210071
 10
426.9455020743
 20
343.9478937685
  0
LINE
  5
2FB
330
1F
100
AcDbEntity
  8
0
  6
Continuous
 62
     7
370
    25
100
AcDbLine
 10
426.0262632587
 20
350.1126906431
 30
0.0
 11
426.0262632587
 21
351.5008100234
 31
0.0
  0
LWPOLYLINE
  5
2FC
330
1F
100
AcDbEntity
  8
0
  6
Continuous
 62
     7
370
    25
100
AcDbPolyline
 90
       14
 70
   128
 43
0.0
 10
426.9455020743
 20
349.5820253705
 10
426.9321463696
 20
349.4627183002
 10
426.8928554406
 20
349.3657650916
 10
426.8299127333
 20
349.2968003127
 10
426.746976249
 20
349.2598319458
 10
426.6488659547
 20
349.257008458
 10
426.5412836641
 20
349.2884939401
 10
426.4304816689
 20
349.3524585704
 10
426.3228993783
 20
349.4451849571
 10
426.224789084
 20
349.5612841796
 10
426.1418525997
 20
349.694008973
 10
426.0789098924
 20
349.8356458549
 10
426.0396189634
 20
349.9779634045
 10
426.0262632587
 20
350.1126906431
  0
LINE
  5
2FD
330
1F
100
AcDbEntity
  8
0
  6
Continuous
 62
     7
370
    25
100
AcDbLine
 10
426.9455020743
 20
350.9701447507
 30
0.0
 11
426.9455020743
 21
349.5820253705
 31
0.0
  0
LWPOLYLINE
  5
2FE
330
1F
100
AcDbEntity
  8
0
  6
Continuous
 62
     7
370
    25
100
AcDbPolyline
 90
       14
 70
   128
 43
0.0
 10
426.0262632587
 20
351.5008100234
 10
426.0396189634
 20
351.6201170936
 10
426.0789098924
 20
351.7170703022
 10
426.1418525997
 20
351.7860350811
 10
426.224789084
 20
351.823003448
 10
426.3228993783
 20
351.8258269358
 10
426.4304816689
 20
351.7943414537
 10
426.5412836641
 20
351.7303768234
 10
426.6488659547
 20
351.6376504367
 10
426.746976249
 20
351.5215512143
 10
426.8299127333
 20
351.3888264208
 10
426.8928554406
 20
351.2471895389
 10
426.9321463696
 20
351.1048719893
 10
426.9455020743
 20
350.9701447507
  0
LINE
  5
2FF
330
1F
100
AcDbEntity
  8
0
  6
Continuous
 62
     7
370
    25
100
AcDbLine
 10
426.3798166493
 20
351.7049120513
 30
0.0
 11
426.3899544126
 21
351.8099184129
 31
0.0
  0
LINE
  5
300
330
1F
100
AcDbEntity
  8
0
  6
Continuous
 62
     7
370
    25
100
AcDbLine
 10
426.3798166493
 20
350.3167926711
 30
0.0
 11
426.3798166493
 21
351.7049120513
 31
0.0
  0
ARC
  5
301
330
1F
100
AcDbEntity
  8
0
  6
Continuous
 62
     7
370
    25
100
AcDbCircle
 10
427.3261194715
 20
350.3391675285
 30
0.0
 40
0.9465673063660359
100
AcDbArc
 50
181.3544777057
 51
245.6183425851
  0
LINE
  5
302
330
1F
100
AcDbEntity
  8
0
  6
Continuous
 62
     7
370
    25
100
AcDbLine
 10
426.3798166493
 20
344.6826610691
 30
0.0
 11
426.3899544126
 21
344.7876674307
 31
0.0
  0
LINE
  5
303
330
1F
100
AcDbEntity
  8
0
  6
Continuous
 62
     7
370
    25
100
AcDbLine
 10
426.3798166493
 20
343.2945416889
 30
0.0
 11
426.3798166493
 21
344.6826610691
 31
0.0
  0
ARC
  5
304
330
1F
100
AcDbEntity
  8
0
  6
Continuous
 62
     7
370
    25
100
AcDbCircle
 10
427.3261194715
 20
343.3169165463
 30
0.0
 40
0.9465673063658745
100
AcDbArc
 50
181.3544777057
 51
245.6183425852
  0
LINE
  5
305
330
1F
100
AcDbEntity
  8
0
  6
Continuous
 62
     7
370
    25
100
AcDbLine
 10
378.9207848866
 20
326.1036731783
 30
0.0
 11
378.9207848866
 21
319.3434795194
 31
0.0
  0
LINE
  5
306
330
1F
100
AcDbEntity
  8
0
  6
Continuous
 62
     7
370
    25
100
AcDbLine
 10
381.0421052302
 20
324.8790610106
 30
0.0
 11
378.9207848866
 21
326.1036731783
 31
0.0
  0
LINE
  5
307
330
1F
100
AcDbEntity
  8
0
  6
Continuous
 62
     7
370
    25
100
AcDbLine
 10
381.0421052302
 20
318.1188673516
 30
0.0
 11
381.0421052302
 21
324.8790610106
 31
0.0
  0
LWPOLYLINE
  5
308
330
1F
100
AcDbEntity
  8
0
  6
Continuous
 62
     7
370
    25
100
AcDbPolyline
 90
       14
 70
   128
 43
0.0
 10
379.5218256506
 20
323.2662502546
 10
379.5351813553
 20
323.1315230159
 10
379.5744722843
 20
322.9892054663
 10
379.6374149916
 20
322.8475685844
 10
379.7203514759
 20
322.714843791
 10
379.8184617702
 20
322.5987445685
 10
379.9260440608
 20
322.5060181819
 10
380.036846056
 20
322.4420535516
 10
380.1444283466
 20
322.4105680694
 10
380.2425386409
 20
322.4133915572
 10
380.3254751252
 20
322.4503599241
 10
380.3884178325
 20
322.519324703
 10
380.4277087615
 20
322.6162779116
 10
380.4410644662
 20
322.7355849819
  0
LINE
  5
309
330
1F
100
AcDbEntity
  8
0
  6
Continuous
 62
     7
370
    25
100
AcDbLine
 10
380.4410644662
 20
322.7355849819
 30
0.0
 11
380.4410644662
 21
324.1237043621
 31
0.0
  0
LWPOLYLINE
  5
30A
330
1F
100
AcDbEntity
  8
0
  6
Continuous
 62
     7
370
    25
100
AcDbPolyline
 90
       14
 70
   128
 43
0.0
 10
380.4410644662
 20
324.1237043621
 10
380.4277087615
 20
324.2584316007
 10
380.3884178325
 20
324.4007491503
 10
380.3254751252
 20
324.5423860322
 10
380.2425386409
 20
324.6751108257
 10
380.1444283466
 20
324.7912100481
 10
380.036846056
 20
324.8839364348
 10
379.9260440608
 20
324.9479010651
 10
379.8184617702
 20
324.9793865472
 10
379.7203514759
 20
324.9765630594
 10
379.6374149916
 20
324.9395946925
 10
379.5744722843
 20
324.8706299136
 10
379.5351813553
 20
324.773676705
 10
379.5218256506
 20
324.6543696348
  0
LINE
  5
30B
330
1F
100
AcDbEntity
  8
0
  6
Continuous
 62
     7
370
    25
100
AcDbLine
 10
379.5218256506
 20
324.6543696348
 30
0.0
 11
379.5218256506
 21
323.2662502546
 31
0.0
  0
LINE
  5
30C
330
1F
100
AcDbEntity
  8
0
  6
Continuous
 62
     7
370
    25
100
AcDbLine
 10
381.0421052302
 20
324.8790610106
 30
0.0
 11
381.3956586208
 21
325.0831630386
 31
0.0
  0
LINE
  5
30D
330
1F
100
AcDbEntity
  8
0
  6
Continuous
 62
     7
370
    25
100
AcDbLine
 10
378.9207848866
 20
326.1036731783
 30
0.0
 11
379.2743382772
 21
326.3077752063
 31
0.0
  0
LINE
  5
30E
330
1F
100
AcDbEntity
  8
0
  6
Continuous
 62
     7
370
    25
100
AcDbLine
 10
381.3956586208
 20
325.0831630386
 30
0.0
 11
379.2743382772
 21
326.3077752063
 31
0.0
  0
LINE
  5
30F
330
1F
100
AcDbEntity
  8
0
  6
Continuous
 62
     7
370
    25
100
AcDbLine
 10
381.3956586208
 20
317.9147653237
 30
0.0
 11
381.3956586208
 21
325.0831630386
 31
0.0
  0
LINE
  5
310
330
1F
100
AcDbEntity
  8
0
  6
Continuous
 62
     7
370
    25
100
AcDbLine
 10
379.8855168045
 20
324.9634780244
 30
0.0
 11
379.8753790412
 21
324.8584716627
 31
0.0
  0
LINE
  5
311
330
1F
100
AcDbEntity
  8
0
  6
Continuous
 62
     7
370
    25
100
AcDbLine
 10
379.8753790412
 20
324.8584716627
 30
0.0
 11
379.8753790412
 21
323.4703522825
 31
0.0
  0
ARC
  5
312
330
1F
100
AcDbEntity
  8
0
  6
Continuous
 62
     7
370
    25
100
AcDbCircle
 10
380.8216818634
 20
323.49272714
 30
0.0
 40
0.9465673063660711
100
AcDbArc
 50
181.3544777057
 51
245.6183425851
  0
LINE
  5
313
330
1F
100
AcDbEntity
  8
0
  6
Continuous
 62
     7
370
    25
100
AcDbLine
 10
436.3758133775
 20
337.4821949987
 30
0.0
 11
429.1753067237
 21
345.026732983
 31
0.0
  0
LINE
  5
314
330
1F
100
AcDbEntity
  8
0
  6
Continuous
 62
     7
370
    25
100
AcDbLine
 10
435.9146925192
 20
336.8376145036
 30
0.0
 11
436.3758133775
 21
337.4821949987
 31
0.0
  0
LINE
  5
315
330
1F
100
AcDbEntity
  8
0
  6
Continuous
 62
     7
370
    25
100
AcDbLine
 10
435.9146925192
 20
336.8376145036
 30
0.0
 11
428.9511921751
 21
344.1338223089
 31
0.0
  0
LINE
  5
316
330
1F
100
AcDbEntity
  8
0
  6
Continuous
 62
     7
370
    25
100
AcDbLine
 10
433.7933721756
 20
338.0622266713
 30
0.0
 11
435.9146925192
 21
336.8376145036
 31
0.0
  0
LINE
  5
317
330
1F
100
AcDbEntity
  8
0
  6
Continuous
 62
     7
370
    25
100
AcDbLine
 10
428.9511921751
 20
343.1357600624
 30
0.0
 11
433.7933721756
 21
338.0622266713
 31
0.0
  0
ARC
  5
318
330
1F
100
AcDbEntity
  8
0
  6
Continuous
 62
     7
370
    25
100
AcDbCircle
 10
429.6722900554
 20
344.4810416211
 30
0.0
 40
1.075763365300244
100
AcDbArc
 50
122.60547834
 51
177.3945215144
  0
ARC
  5
319
330
1F
100
AcDbEntity
  8
0
  6
Continuous
 62
     7
370
    25
100
AcDbCircle
 10
426.1615314879
 20
346.5130096201
 30
0.0
 40
1.100953058550386
100
AcDbArc
 50
131.9739267831
 51
176.9825186248
  0
ARC
  5
31A
330
1F
100
AcDbEntity
  8
0
  6
Continuous
 62
     7
370
    25
100
AcDbCircle
 10
429.2582353953
 20
344.7200740752
 30
0.0
 40
0.307360961514819
100
AcDbArc
 50
122.60547834
 51
177.3945215143
  0
LINE
  5
31B
330
1F
100
AcDbEntity
  8
0
  6
Continuous
 62
     7
370
    25
100
AcDbLine
 10
428.5976387845
 20
341.0188187266
 30
0.0
 11
428.9511921751
 21
341.2229207545
 31
0.0
  0
LINE
  5
31C
330
1F
100
AcDbEntity
  8
0
  6
Continuous
 62
     7
370
    25
100
AcDbLine
 10
428.5976387845
 20
341.0188187266
 30
0.0
 11
428.5976387845
 21
344.5299442177
 31
0.0
  0
LINE
  5
31D
330
1F
100
AcDbEntity
  8
0
  6
Continuous
 62
     7
370
    25
100
AcDbLine
 10
428.9511921751
 20
341.2229207545
 30
0.0
 11
428.9511921751
 21
344.7340462456
 31
0.0
  0
LINE
  5
31E
330
1F
100
AcDbEntity
  8
0
  6
Continuous
 62
     7
370
    25
100
AcDbLine
 10
428.5976387845
 20
341.0188187266
 30
0.0
 11
427.9000962289
 21
341.4215014726
 31
0.0
  0
LINE
  5
31F
330
1F
100
AcDbEntity
  8
0
  6
Continuous
 62
     7
370
    25
100
AcDbLine
 10
425.4252224947
 20
342.8502156683
 30
0.0
 11
425.0621048785
 21
343.0598390061
 31
0.0
  0
LINE
  5
320
330
1F
100
AcDbEntity
  8
0
  6
Continuous
 62
     7
370
    25
100
AcDbLine
 10
425.0621048785
 20
343.0598390061
 30
0.0
 11
425.0621048785
 21
346.5709644972
 31
0.0
  0
LWPOLYLINE
  5
321
330
1F
100
AcDbEntity
  8
0
  6
Continuous
 62
     7
370
    25
100
AcDbPolyline
 90
        8
 70
   128
 43
0.0
 10
426.3910659108
 20
343.1713414339
 10
426.4428849914
 20
343.0495153422
 10
426.5212601247
 20
342.9137656297
 10
426.6151103376
 20
342.7914906788
 10
426.7197295886
 20
342.6888218662
 10
426.8298718315
 20
342.6109074347
 10
426.9400140745
 20
342.5616543393
 10
426.9455020743
 20
342.559970654
  0
ARC
  5
322
330
1F
100
AcDbEntity
  8
0
  6
Continuous
 62
     7
370
    25
100
AcDbCircle
 10
426.606282177
 20
344.4685385779
 30
0.0
 40
0.2517124414868587
100
AcDbArc
 50
105.822106431
 51
154.1185802522
  0
LINE
  5
323
330
1F
100
AcDbEntity
  8
0
  6
Continuous
 62
     7
370
    25
100
AcDbLine
 10
429.0926135313
 20
344.9789952192
 30
0.0
 11
434.3015001371
 21
347.9860214503
 31
0.0
  0
LINE
  5
324
330
1F
100
AcDbEntity
  8
0
  6
Continuous
 62
     7
370
    25
100
AcDbLine
 10
429.0926135313
 20
345.3872656251
 30
0.0
 11
433.9478892794
 21
348.1901566533
 31
0.0
  0
LINE
  5
325
330
1F
100
AcDbEntity
  8
0
  6
Continuous
 62
     7
370
    25
100
AcDbLine
 10
427.9000962289
 20
348.7808805991
 30
0.0
 11
430.4123553735
 21
350.2311769329
 31
0.0
  0
ARC
  5
326
330
1F
100
AcDbEntity
  8
0
  6
Continuous
 62
     7
370
    25
100
AcDbCircle
 10
427.7582807511
 20
343.7200029248
 30
0.0
 40
1.07089189177782
100
AcDbArc
 50
182.5514344615
 51
220.6262036951
  0
LINE
  5
327
330
1F
100
AcDbEntity
  8
0
  6
Continuous
 62
     7
370
    25
100
AcDbLine
 10
426.6884504753
 20
343.6723308701
 30
0.0
 11
426.6884504753
 21
344.5705257632
 31
0.0
  0
LINE
  5
328
330
1F
100
AcDbEntity
  8
0
  6
Continuous
 62
     7
370
    25
100
AcDbLine
 10
437.0829201587
 20
346.3803418497
 30
0.0
 11
437.0829201587
 21
334.5543951467
 31
0.0
  0
LINE
  5
329
330
1F
100
AcDbEntity
  8
0
  6
Continuous
 62
     7
370
    25
100
AcDbLine
 10
434.1945316712
 20
332.8869639651
 30
0.0
 11
433.5473862528
 21
333.2605530631
 31
0.0
  0
LINE
  5
32A
330
1F
100
AcDbEntity
  8
0
  6
Continuous
 62
     7
370
    25
100
AcDbLine
 10
433.5473862528
 20
347.5506807714
 30
0.0
 11
433.5473862528
 21
340.4457608843
 31
0.0
  0
LINE
  5
32B
330
1F
100
AcDbEntity
  8
0
  6
Continuous
 62
     7
370
    25
100
AcDbLine
 10
433.5473862528
 20
338.3199654983
 30
0.0
 11
433.5473862528
 21
333.2605530631
 31
0.0
  0
LWPOLYLINE
  5
32C
330
1F
100
AcDbEntity
  8
0
  6
Continuous
 62
     7
370
    25
100
AcDbPolyline
 90
       15
 70
   128
 43
0.0
 10
434.8201784589
 20
334.8937541169
 10
434.8325885092
 20
334.7594017505
 10
434.8691963685
 20
334.6174580337
 10
434.9281663657
 20
334.475040617
 10
435.0065414989
 20
334.3392909045
 10
435.1003917118
 20
334.2170159537
 10
435.2050109628
 20
334.114347141
 10
435.3151532058
 20
334.0364327095
 10
435.4252954487
 20
333.9871796141
 10
435.5299146997
 20
333.9690576107
 10
435.6237649126
 20
333.9829754122
 10
435.7021400459
 20
334.028235122
 10
435.761110043
 20
334.1025672291
 10
435.7977179023
 20
334.2022444114
 10
435.8101279526
 20
334.3222684387
  0
LINE
  5
32D
330
1F
100
AcDbEntity
  8
0
  6
Continuous
 62
     7
370
    25
100
AcDbLine
 10
435.8101279526
 20
334.3222684387
 30
0.0
 11
435.8101279526
 21
335.2204633317
 31
0.0
  0
LWPOLYLINE
  5
32E
330
1F
100
AcDbEntity
  8
0
  6
Continuous
 62
     7
370
    25
100
AcDbPolyline
 90
       15
 70
   128
 43
0.0
 10
435.8101279526
 20
335.2204633317
 10
435.7977179023
 20
335.3548156981
 10
435.761110043
 20
335.496759415
 10
435.7021400459
 20
335.6391768317
 10
435.6237649126
 20
335.7749265441
 10
435.5299146997
 20
335.897201495
 10
435.4252954487
 20
335.9998703077
 10
435.3151532058
 20
336.0777847392
 10
435.2050109628
 20
336.1270378346
 10
435.1003917118
 20
336.145159838
 10
435.0065414989
 20
336.1312420365
 10
434.9281663657
 20
336.0859823267
 10
434.8691963685
 20
336.0116502196
 10
434.8325885092
 20
335.9119730373
 10
434.8201784589
 20
335.79194901
  0
LINE
  5
32F
330
1F
100
AcDbEntity
  8
0
  6
Continuous
 62
     7
370
    25
100
AcDbLine
 10
434.8201784589
 20
335.79194901
 30
0.0
 11
434.8201784589
 21
334.8937541169
 31
0.0
  0
LWPOLYLINE
  5
330
330
1F
100
AcDbEntity
  8
0
  6
Continuous
 62
     7
370
    25
100
AcDbPolyline
 90
       15
 70
   128
 43
0.0
 10
434.8201784589
 20
346.6519418081
 10
434.8325885092
 20
346.5175894417
 10
434.8691963685
 20
346.3756457248
 10
434.9281663657
 20
346.2332283082
 10
435.0065414989
 20
346.0974785957
 10
435.1003917118
 20
345.9752036448
 10
435.2050109628
 20
345.8725348321
 10
435.3151532058
 20
345.7946204006
 10
435.4252954487
 20
345.7453673053
 10
435.5299146997
 20
345.7272453019
 10
435.6237649126
 20
345.7411631034
 10
435.7021400459
 20
345.7864228131
 10
435.761110043
 20
345.8607549202
 10
435.7977179023
 20
345.9604321025
 10
435.8101279526
 20
346.0804561298
  0
LINE
  5
331
330
1F
100
AcDbEntity
  8
0
  6
Continuous
 62
     7
370
    25
100
AcDbLine
 10
435.8101279526
 20
346.0804561298
 30
0.0
 11
435.8101279526
 21
346.9786510229
 31
0.0
  0
LWPOLYLINE
  5
332
330
1F
100
AcDbEntity
  8
0
  6
Continuous
 62
     7
370
    25
100
AcDbPolyline
 90
        3
 70
   128
 43
0.0
 10
435.8101279526
 20
346.9786510229
 10
435.7977179023
 20
347.1130033893
 10
435.7958151426
 20
347.1233717597
  0
LWPOLYLINE
  5
333
330
1F
100
AcDbEntity
  8
0
  6
Continuous
 62
     7
370
    25
100
AcDbPolyline
 90
        3
 70
   128
 43
0.0
 10
434.8344912689
 20
347.6783322193
 10
434.8325885092
 20
347.6701607285
 10
434.8201784589
 20
347.5501367012
  0
LINE
  5
334
330
1F
100
AcDbEntity
  8
0
  6
Continuous
 62
     7
370
    25
100
AcDbLine
 10
434.8201784589
 20
347.5501367012
 30
0.0
 11
434.8201784589
 21
346.6519418081
 31
0.0
  0
LINE
  5
335
330
1F
100
AcDbEntity
  8
0
  6
Continuous
 62
     7
370
    25
100
AcDbLine
 10
437.4364735493
 20
346.1762398217
 30
0.0
 11
437.4364735493
 21
334.7584971747
 31
0.0
  0
ARC
  5
336
330
1F
100
AcDbEntity
  8
0
  6
Continuous
 62
     7
370
    25
100
AcDbCircle
 10
436.1734790894
 20
346.870038858
 30
0.0
 40
0.9998451901177666
100
AcDbArc
 50
180.8020060385
 51
247.6943161012
  0
LINE
  5
337
330
1F
100
AcDbEntity
  8
0
  6
Continuous
 62
     7
370
    25
100
AcDbLine
 10
435.1737318495
 20
346.8560438361
 30
0.0
 11
435.1737318495
 21
347.4824928007
 31
0.0
  0
LWPOLYLINE
  5
338
330
1F
100
AcDbEntity
  8
0
  6
Continuous
 62
     7
370
    25
100
AcDbPolyline
 90
        3
 70
   128
 43
0.0
 10
435.1737318495
 20
335.996051038
 10
435.1861418998
 20
336.1160750653
 10
435.189869896
 20
336.1314971547
  0
ARC
  5
339
330
1F
100
AcDbEntity
  8
0
  6
Continuous
 62
     7
370
    25
100
AcDbCircle
 10
436.1734790894
 20
335.1118511669
 30
0.0
 40
0.9998451901169924
100
AcDbArc
 50
180.8020060385
 51
247.6943161013
  0
LINE
  5
33A
330
1F
100
AcDbEntity
  8
0
  6
Continuous
 62
     7
370
    25
100
AcDbLine
 10
435.1737318495
 20
335.0978561449
 30
0.0
 11
435.1737318495
 21
335.996051038
 31
0.0
  0
ARC
  5
33B
330
1F
100
AcDbEntity
  8
0
  6
Continuous
 62
     7
370
    25
100
AcDbCircle
 10
381.453771482
 20
317.555867335
 30
0.0
 40
0.2771203395732664
100
AcDbArc
 50
8.3815663357
 51
111.623810197
  0
ARC
  5
33C
330
1F
100
AcDbEntity
  8
0
  6
Continuous
 62
     7
370
    25
100
AcDbCircle
 10
377.9223832145
 20
319.5754253403
 30
0.0
 40
0.2986274205172699
100
AcDbArc
 50
62.7513447833
 51
110.8457404608
  0
LINE
  5
33D
330
1F
100
AcDbEntity
  8
0
  6
Continuous
 62
     7
370
    25
100
AcDbLine
 10
347.3980192622
 20
343.0504215306
 30
0.0
 11
347.3980192622
 21
342.805499097
 31
0.0
  0
LINE
  5
33E
330
1F
100
AcDbEntity
  8
0
  6
Continuous
 62
     7
370
    25
100
AcDbLine
 10
347.3980192622
 20
343.0504215306
 30
0.0
 11
352.3477667305
 21
340.1929931392
 31
0.0
  0
LINE
  5
33F
330
1F
100
AcDbEntity
  8
0
  6
Continuous
 62
     7
370
    25
100
AcDbLine
 10
352.3477667305
 20
340.1929931392
 30
0.0
 11
352.3477667305
 21
339.9480707056
 31
0.0
  0
LINE
  5
340
330
1F
100
AcDbEntity
  8
0
  6
Continuous
 62
     7
370
    25
100
AcDbLine
 10
353.9741123272
 20
322.5966912481
 30
0.0
 11
386.2888922275
 21
303.941765893
 31
0.0
  0
LINE
  5
341
330
1F
100
AcDbEntity
  8
0
  6
Continuous
 62
     7
370
    25
100
AcDbLine
 10
386.2888922275
 20
303.941765893
 30
0.0
 11
386.2888922275
 21
298.2259802098
 31
0.0
  0
LINE
  5
342
330
1F
100
AcDbEntity
  8
0
  6
Continuous
 62
     7
370
    25
100
AcDbLine
 10
353.9741123272
 20
316.8809055649
 30
0.0
 11
386.2888922275
 21
298.2259802098
 31
0.0
  0
LINE
  5
343
330
1F
100
AcDbEntity
  8
0
  6
Continuous
 62
     7
370
    25
100
AcDbLine
 10
386.2888922275
 20
303.941765893
 30
0.0
 11
395.8348337735
 21
309.4525206478
 31
0.0
  0
LINE
  5
344
330
1F
100
AcDbEntity
  8
0
  6
Continuous
 62
     7
370
    25
100
AcDbLine
 10
386.2888922275
 20
298.2259802098
 30
0.0
 11
395.8348337735
 21
303.7367349646
 31
0.0
  0
LINE
  5
345
330
1F
100
AcDbEntity
  8
0
  6
Continuous
 62
     7
370
    25
100
AcDbLine
 10
395.8348337735
 20
309.4525206478
 30
0.0
 11
395.8348337735
 21
303.7367349646
 31
0.0
  0
LINE
  5
346
330
1F
100
AcDbEntity
  8
0
  6
Continuous
 62
     7
370
    25
100
AcDbLine
 10
353.9741123272
 20
324.4744299053
 30
0.0
 11
361.8937082765
 21
329.0463153315
 31
0.0
  0
LWPOLYLINE
  5
347
330
1F
100
AcDbEntity
  8
0
  6
Continuous
 62
     7
370
    25
100
AcDbPolyline
 90
       34
 70
   128
 43
0.0
 10
364.7221354013
 20
323.3314585488
 10
364.8687345802
 20
323.2615822023
 10
365.0355919643
 20
323.2089849272
 10
365.2166768929
 20
323.175567726
 10
365.4054444849
 20
323.1625383835
 10
365.5950721877
 20
323.170367814
 10
365.7787063621
 20
323.1987730416
 10
365.9497099904
 20
323.2467274272
 10
366.1019025562
 20
323.3124977745
 10
366.2297834234
 20
323.3937069717
 10
366.3287306444
 20
323.4874199068
 10
366.3951680088
 20
323.5902495503
 10
366.4266942971
 20
323.6984793708
 10
366.4221700671
 20
323.8081976607
 10
366.3817588364
 20
323.9154389151
 10
366.306921172
 20
324.0163271557
 10
366.2003619022
 20
324.1072160186
 10
366.0659323566
 20
324.1848205434
 10
365.9084911692
 20
324.2463359005
 10
365.7337286747
 20
324.2895387645
 10
365.5479612451
 20
324.3128676715
 10
365.3579029993
 20
324.3154794538
 10
365.1704231374
 20
324.297279715
 10
364.9922976701
 20
324.2589262409
 10
364.829964516
 20
324.2018052261
 10
364.6892908181
 20
324.1279811728
 10
364.5753608904
 20
324.0401222747
 10
364.4922924575
 20
323.9414039814
 10
364.4430878287
 20
323.835394229
 10
364.4295253878
 20
323.7259244863
 10
364.4520953165
 20
323.616951275
 10
364.5099818789
 20
323.5124131709
 10
364.6010929038
 20
323.4160884534
 10
364.7221354013
 20
323.3314585488
  0
LWPOLYLINE
  5
348
330
1F
100
AcDbEntity
  8
0
  6
Continuous
 62
     7
370
    25
100
AcDbPolyline
 90
       34
 70
   128
 43
0.0
 10
385.5817854463
 20
306.7991942843
 10
385.7283846252
 20
306.7293179379
 10
385.8952420093
 20
306.6767206628
 10
386.0763269379
 20
306.6433034616
 10
386.2650945299
 20
306.6302741191
 10
386.4547222327
 20
306.6381035496
 10
386.6383564071
 20
306.6665087772
 10
386.8093600354
 20
306.7144631628
 10
386.9615526012
 20
306.7802335101
 10
387.0894334684
 20
306.8614427073
 10
387.1883806894
 20
306.9551556424
 10
387.2548180538
 20
307.0579852859
 10
387.2863443421
 20
307.1662151064
 10
387.2818201121
 20
307.2759333963
 10
387.2414088814
 20
307.3831746507
 10
387.166571217
 20
307.4840628913
 10
387.0600119472
 20
307.5749517542
 10
386.9255824016
 20
307.652556279
 10
386.7681412142
 20
307.7140716361
 10
386.5933787197
 20
307.7572745001
 10
386.4076112901
 20
307.7806034071
 10
386.2175530443
 20
307.7832151894
 10
386.0300731824
 20
307.7650154506
 10
385.8519477151
 20
307.7266619765
 10
385.689614561
 20
307.6695409617
 10
385.5489408631
 20
307.5957169084
 10
385.4350109354
 20
307.5078580103
 10
385.3519425025
 20
307.409139717
 10
385.3027378738
 20
307.3031299646
 10
385.2891754328
 20
307.1936602219
 10
385.3117453615
 20
307.0846870106
 10
385.3696319239
 20
306.9801489065
 10
385.4607429488
 20
306.883824189
 10
385.5817854463
 20
306.7991942843
  0
LWPOLYLINE
  5
349
330
1F
100
AcDbEntity
  8
0
  6
Continuous
 62
     7
370
    25
100
AcDbPolyline
 90
       34
 70
   128
 43
0.0
 10
389.4708727428
 20
309.0443165919
 10
389.6174719218
 20
308.9744402454
 10
389.7843293058
 20
308.9218429703
 10
389.9654142344
 20
308.8884257691
 10
390.1541818265
 20
308.8753964266
 10
390.3438095293
 20
308.8832258571
 10
390.5274437036
 20
308.9116310847
 10
390.698447332
 20
308.9595854703
 10
390.8506398977
 20
309.0253558176
 10
390.9785207649
 20
309.1065650148
 10
391.0774679859
 20
309.2002779499
 10
391.1439053503
 20
309.3031075934
 10
391.1754316386
 20
309.4113374139
 10
391.1709074087
 20
309.5210557038
 10
391.1304961779
 20
309.6282969583
 10
391.0556585136
 20
309.7291851988
 10
390.9490992437
 20
309.8200740617
 10
390.8146696981
 20
309.8976785865
 10
390.6572285107
 20
309.9591939436
 10
390.4824660163
 20
310.0023968076
 10
390.2966985867
 20
310.0257257146
 10
390.1066403408
 20
310.0283374969
 10
389.9191604789
 20
310.0101377581
 10
389.7410350116
 20
309.971784284
 10
389.5787018575
 20
309.9146632692
 10
389.4380281596
 20
309.8408392159
 10
389.324098232
 20
309.7529803178
 10
389.241029799
 20
309.6542620245
 10
389.1918251703
 20
309.5482522721
 10
389.1782627293
 20
309.4387825294
 10
389.200832658
 20
309.3298093181
 10
389.2587192204
 20
309.225271214
 10
389.3498302453
 20
309.1289464965
 10
389.4708727428
 20
309.0443165919
  0
LWPOLYLINE
  5
34A
330
1F
100
AcDbEntity
  8
0
  6
Continuous
 62
     7
370
    25
100
AcDbPolyline
 90
       34
 70
   128
 43
0.0
 10
360.8330481048
 20
321.0863362412
 10
360.9796472837
 20
321.0164598948
 10
361.1465046678
 20
320.9638626197
 10
361.3275895964
 20
320.9304454185
 10
361.5163571884
 20
320.917416076
 10
361.7059848912
 20
320.9252455065
 10
361.8896190655
 20
320.9536507341
 10
362.0606226939
 20
321.0016051197
 10
362.2128152596
 20
321.067375467
 10
362.3406961269
 20
321.1485846641
 10
362.4396433479
 20
321.2422975993
 10
362.5060807122
 20
321.3451272428
 10
362.5376070006
 20
321.4533570633
 10
362.5330827706
 20
321.5630753532
 10
362.4926715399
 20
321.6703166076
 10
362.4178338755
 20
321.7712048482
 10
362.3112746057
 20
321.8620937111
 10
362.1768450601
 20
321.9396982359
 10
362.0194038727
 20
322.001213593
 10
361.8446413782
 20
322.044416457
 10
361.6588739486
 20
322.067745364
 10
361.4688157027
 20
322.0703571463
 10
361.2813358408
 20
322.0521574075
 10
361.1032103736
 20
322.0138039334
 10
360.9408772194
 20
321.9566829186
 10
360.8002035216
 20
321.8828588653
 10
360.6862735939
 20
321.7949999672
 10
360.6032051609
 20
321.6962816739
 10
360.5540005322
 20
321.5902719215
 10
360.5404380912
 20
321.4808021788
 10
360.56300802
 20
321.3718289675
 10
360.6208945824
 20
321.2672908633
 10
360.7120056072
 20
321.1709661458
 10
360.8330481048
 20
321.0863362412
  0
LINE
  5
34B
330
1F
100
AcDbEntity
  8
0
  6
Continuous
 62
     7
370
    25
100
AcDbLine
 10
395.8348337735
 20
309.4525206478
 30
0.0
 11
361.8937082765
 21
329.0463153315
 31
0.0
  0
LINE
  5
34C
330
1F
100
AcDbEntity
  8
0
  6
Continuous
 62
     7
370
    25
100
AcDbLine
 10
352.3477667305
 20
340.1929931392
 30
0.0
 11
361.8937082765
 21
345.703747894
 31
0.0
  0
LINE
  5
34D
330
1F
100
AcDbEntity
  8
0
  6
Continuous
 62
     7
370
    25
100
AcDbLine
 10
356.9439608082
 20
348.5611762854
 30
0.0
 11
347.3980192622
 21
343.0504215306
 31
0.0
  0
LINE
  5
34E
330
1F
100
AcDbEntity
  8
0
  6
Continuous
 62
     7
370
    25
100
AcDbLine
 10
361.8937082765
 20
345.703747894
 30
0.0
 11
356.9439608082
 21
348.5611762854
 31
0.0
  0
LINE
  5
34F
330
1F
100
AcDbEntity
  8
0
  6
Continuous
 62
     7
370
    25
100
AcDbLine
 10
361.8937082765
 20
345.703747894
 30
0.0
 11
361.8937082765
 21
329.0463153315
 31
0.0
  0
LINE
  5
350
330
1F
100
AcDbEntity
  8
0
  6
Continuous
 62
     7
370
    25
100
AcDbLine
 10
414.5024527968
 20
381.7889864365
 30
0.0
 11
414.5024527968
 21
359.4157681909
 31
0.0
  0
LINE
  5
351
330
1F
100
AcDbEntity
  8
0
  6
Continuous
 62
     7
370
    25
100
AcDbLine
 10
414.5024527968
 20
381.7889864365
 30
0.0
 11
419.4522002651
 21
378.9315580452
 31
0.0
  0
LINE
  5
352
330
1F
100
AcDbEntity
  8
0
  6
Continuous
 62
     7
370
    25
100
AcDbLine
 10
419.4522002651
 20
378.9315580452
 30
0.0
 11
419.4522002651
 21
362.2741254827
 31
0.0
  0
LINE
  5
353
330
1F
100
AcDbEntity
  8
0
  6
Continuous
 62
     7
370
    25
100
AcDbLine
 10
419.4522002651
 20
362.2741254827
 30
0.0
 11
453.3933257621
 21
342.680330799
 31
0.0
  0
LINE
  5
354
330
1F
100
AcDbEntity
  8
0
  6
Continuous
 62
     7
370
    25
100
AcDbLine
 10
453.3933257621
 20
342.680330799
 30
0.0
 11
453.3933257621
 21
336.9645451158
 31
0.0
  0
LINE
  5
355
330
1F
100
AcDbEntity
  8
0
  6
Continuous
 62
     7
370
    25
100
AcDbLine
 10
414.5024527968
 20
359.4157681909
 30
0.0
 11
425.5638655769
 21
353.0301505146
 31
0.0
  0
LINE
  5
356
330
1F
100
AcDbEntity
  8
0
  6
Continuous
 62
     7
370
    25
100
AcDbLine
 10
427.9000962289
 20
351.6814732667
 30
0.0
 11
453.3933257621
 21
336.9645451158
 31
0.0
  0
LINE
  5
357
330
1F
100
AcDbEntity
  8
0
  6
Continuous
 62
     7
370
    25
100
AcDbLine
 10
453.3933257621
 20
342.680330799
 30
0.0
 11
462.9392673081
 21
348.1910855538
 31
0.0
  0
LINE
  5
358
330
1F
100
AcDbEntity
  8
0
  6
Continuous
 62
     7
370
    25
100
AcDbLine
 10
453.3933257621
 20
336.9645451158
 30
0.0
 11
462.9392673081
 21
342.4752998706
 31
0.0
  0
LINE
  5
359
330
1F
100
AcDbEntity
  8
0
  6
Continuous
 62
     7
370
    25
100
AcDbLine
 10
462.9392673081
 20
348.1910855538
 30
0.0
 11
462.9392673081
 21
342.4752998706
 31
0.0
  0
LINE
  5
35A
330
1F
100
AcDbEntity
  8
0
  6
Continuous
 62
     7
370
    25
100
AcDbLine
 10
419.4522002651
 20
362.2741254827
 30
0.0
 11
428.9981418111
 21
367.7848802375
 31
0.0
  0
LWPOLYLINE
  5
35B
330
1F
100
AcDbEntity
  8
0
  6
Continuous
 62
     7
370
    25
100
AcDbPolyline
 90
       34
 70
   128
 43
0.0
 10
431.8265689359
 20
362.0700234547
 10
431.9731681148
 20
362.0001471083
 10
432.1400254989
 20
361.9475498332
 10
432.3211104275
 20
361.914132632
 10
432.5098780195
 20
361.9011032895
 10
432.6995057223
 20
361.90893272
 10
432.8831398967
 20
361.9373379476
 10
433.054143525
 20
361.9852923332
 10
433.2063360908
 20
362.0510626805
 10
433.334216958
 20
362.1322718776
 10
433.433164179
 20
362.2259848128
 10
433.4996015434
 20
362.3288144563
 10
433.5311278317
 20
362.4370442768
 10
433.5266036017
 20
362.5467625667
 10
433.486192371
 20
362.6540038211
 10
433.4113547066
 20
362.7548920617
 10
433.3047954368
 20
362.8457809246
 10
433.1703658912
 20
362.9233854494
 10
433.0129247038
 20
362.9849008065
 10
432.8381622093
 20
363.0281036705
 10
432.6523947797
 20
363.0514325775
 10
432.4623365339
 20
363.0540443598
 10
432.274856672
 20
363.035844621
 10
432.0967312047
 20
362.9974911469
 10
431.9343980506
 20
362.9403701321
 10
431.7937243527
 20
362.8665460788
 10
431.6797944251
 20
362.7786871807
 10
431.5967259921
 20
362.6799688874
 10
431.5475213634
 20
362.573959135
 10
431.5339589224
 20
362.4644893923
 10
431.5565288511
 20
362.355516181
 10
431.6144154135
 20
362.2509780768
 10
431.7055264384
 20
362.1546533593
 10
431.8265689359
 20
362.0700234547
  0
LWPOLYLINE
  5
35C
330
1F
100
AcDbEntity
  8
0
  6
Continuous
 62
     7
370
    25
100
AcDbPolyline
 90
       34
 70
   128
 43
0.0
 10
452.6862189809
 20
345.5377591903
 10
452.8328181598
 20
345.4678828439
 10
452.9996755439
 20
345.4152855688
 10
453.1807604725
 20
345.3818683676
 10
453.3695280645
 20
345.3688390251
 10
453.5591557673
 20
345.3766684556
 10
453.7427899417
 20
345.4050736832
 10
453.91379357
 20
345.4530280688
 10
454.0659861358
 20
345.518798416
 10
454.193867003
 20
345.6000076132
 10
454.292814224
 20
345.6937205484
 10
454.3592515884
 20
345.7965501919
 10
454.3907778767
 20
345.9047800124
 10
454.3862536467
 20
346.0144983023
 10
454.345842416
 20
346.1217395567
 10
454.2710047516
 20
346.2226277973
 10
454.1644454818
 20
346.3135166602
 10
454.0300159362
 20
346.391121185
 10
453.8725747488
 20
346.4526365421
 10
453.6978122543
 20
346.4958394061
 10
453.5120448247
 20
346.5191683131
 10
453.3219865789
 20
346.5217800954
 10
453.134506717
 20
346.5035803565
 10
452.9563812497
 20
346.4652268825
 10
452.7940480956
 20
346.4081058676
 10
452.6533743977
 20
346.3342818144
 10
452.5394444701
 20
346.2464229163
 10
452.4563760371
 20
346.1477046229
 10
452.4071714084
 20
346.0416948706
 10
452.3936089674
 20
345.9322251279
 10
452.4161788961
 20
345.8232519166
 10
452.4740654585
 20
345.7187138124
 10
452.5651764834
 20
345.6223890949
 10
452.6862189809
 20
345.5377591903
  0
LWPOLYLINE
  5
35D
330
1F
100
AcDbEntity
  8
0
  6
Continuous
 62
     7
370
    25
100
AcDbPolyline
 90
       34
 70
   128
 43
0.0
 10
456.5753062774
 20
347.7828814978
 10
456.7219054564
 20
347.7130051514
 10
456.8887628404
 20
347.6604078763
 10
457.069847769
 20
347.6269906751
 10
457.2586153611
 20
347.6139613326
 10
457.4482430639
 20
347.6217907631
 10
457.6318772382
 20
347.6501959907
 10
457.8028808666
 20
347.6981503763
 10
457.9550734323
 20
347.7639207236
 10
458.0829542995
 20
347.8451299208
 10
458.1819015205
 20
347.9388428559
 10
458.2483388849
 20
348.0416724994
 10
458.2798651732
 20
348.1499023199
 10
458.2753409433
 20
348.2596206098
 10
458.2349297125
 20
348.3668618642
 10
458.1600920482
 20
348.4677501048
 10
458.0535327783
 20
348.5586389677
 10
457.9191032327
 20
348.6362434925
 10
457.7616620453
 20
348.6977588496
 10
457.5868995509
 20
348.7409617136
 10
457.4011321213
 20
348.7642906206
 10
457.2110738754
 20
348.7669024029
 10
457.0235940135
 20
348.7487026641
 10
456.8454685462
 20
348.71034919
 10
456.6831353921
 20
348.6532281752
 10
456.5424616942
 20
348.5794041219
 10
456.4285317666
 20
348.4915452238
 10
456.3454633336
 20
348.3928269305
 10
456.2962587049
 20
348.2868171781
 10
456.2826962639
 20
348.1773474354
 10
456.3052661926
 20
348.0683742241
 10
456.363152755
 20
347.96383612
 10
456.4542637799
 20
347.8675114025
 10
456.5753062774
 20
347.7828814978
  0
LWPOLYLINE
  5
35E
330
1F
100
AcDbEntity
  8
0
  6
Continuous
 62
     7
370
    25
100
AcDbPolyline
 90
       34
 70
   128
 43
0.0
 10
427.9374816394
 20
359.8249011472
 10
428.0840808183
 20
359.7550248008
 10
428.2509382024
 20
359.7024275257
 10
428.432023131
 20
359.6690103245
 10
428.620790723
 20
359.655980982
 10
428.8104184258
 20
359.6638104125
 10
428.9940526001
 20
359.6922156401
 10
429.1650562285
 20
359.7401700257
 10
429.3172487942
 20
359.8059403729
 10
429.4451296615
 20
359.8871495701
 10
429.5440768825
 20
359.9808625053
 10
429.6105142468
 20
360.0836921487
 10
429.6420405352
 20
360.1919219693
 10
429.6375163052
 20
360.3016402592
 10
429.5971050745
 20
360.4088815136
 10
429.5222674101
 20
360.5097697542
 10
429.4157081403
 20
360.6006586171
 10
429.2812785947
 20
360.6782631419
 10
429.1238374073
 20
360.739778499
 10
428.9490749128
 20
360.782981363
 10
428.7633074832
 20
360.80631027
 10
428.5732492373
 20
360.8089220523
 10
428.3857693754
 20
360.7907223134
 10
428.2076439082
 20
360.7523688394
 10
428.045310754
 20
360.6952478245
 10
427.9046370562
 20
360.6214237713
 10
427.7907071285
 20
360.5335648732
 10
427.7076386955
 20
360.4348465798
 10
427.6584340668
 20
360.3288368275
 10
427.6448716259
 20
360.2193670848
 10
427.6674415546
 20
360.1103938735
 10
427.725328117
 20
360.0058557693
 10
427.8164391418
 20
359.9095310518
 10
427.9374816394
 20
359.8249011472
  0
LINE
  5
35F
330
1F
100
AcDbEntity
  8
0
  6
Continuous
 62
     7
370
    25
100
AcDbLine
 10
462.9392673081
 20
348.1910855538
 30
0.0
 11
428.9981418111
 21
367.7848802375
 31
0.0
  0
LINE
  5
360
330
1F
100
AcDbEntity
  8
0
  6
Continuous
 62
     7
370
    25
100
AcDbLine
 10
419.4522002651
 20
378.9315580452
 30
0.0
 11
428.9981418111
 21
384.4423128
 31
0.0
  0
LINE
  5
361
330
1F
100
AcDbEntity
  8
0
  6
Continuous
 62
     7
370
    25
100
AcDbLine
 10
424.0483943428
 20
387.2997411914
 30
0.0
 11
414.5024527968
 21
381.7889864365
 31
0.0
  0
LINE
  5
362
330
1F
100
AcDbEntity
  8
0
  6
Continuous
 62
     7
370
    25
100
AcDbLine
 10
428.9981418111
 20
384.4423128
 30
0.0
 11
424.0483943428
 21
387.2997411914
 31
0.0
  0
LINE
  5
363
330
1F
100
AcDbEntity
  8
0
  6
Continuous
 62
     7
370
    25
100
AcDbLine
 10
428.9981418111
 20
384.4423128
 30
0.0
 11
428.9981418111
 21
367.7848802375
 31
0.0
  0
LINE
  5
364
330
1F
100
AcDbEntity
  8
0
  6
Continuous
 62
     7
370
    25
100
AcDbLine
 10
347.1151765497
 20
343.3769847753
 30
0.0
 11
346.8323338373
 21
343.5402663977
 31
0.0
  0
LINE
  5
365
330
1F
100
AcDbEntity
  8
0
  6
Continuous
 62
     7
370
    25
100
AcDbLine
 10
347.1151765497
 20
342.9687807194
 30
0.0
 11
347.1151765497
 21
343.3769847753
 31
0.0
  0
LINE
  5
366
330
1F
100
AcDbEntity
  8
0
  6
Continuous
 62
     7
370
    25
100
AcDbLine
 10
346.8323338373
 20
343.1320623417
 30
0.0
 11
346.8323338373
 21
343.5402663977
 31
0.0
  0
LINE
  5
367
330
1F
100
AcDbEntity
  8
0
  6
Continuous
 62
     7
370
    25
100
AcDbLine
 10
423.1998662054
 20
387.6263044361
 30
0.0
 11
346.8323338373
 21
343.5402663977
 31
0.0
  0
LINE
  5
368
330
1F
100
AcDbEntity
  8
0
  6
Continuous
 62
     7
370
    25
100
AcDbLine
 10
423.4827089179
 20
387.4630228137
 30
0.0
 11
423.1998662054
 21
387.6263044361
 31
0.0
  0
LINE
  5
369
330
1F
100
AcDbEntity
  8
0
  6
Continuous
 62
     7
370
    25
100
AcDbLine
 10
423.4827089179
 20
387.4630228137
 30
0.0
 11
347.1151765497
 21
343.3769847753
 31
0.0
  0
LINE
  5
36A
330
1F
100
AcDbEntity
  8
0
  6
Continuous
 62
     7
370
    25
100
AcDbLine
 10
423.4827089179
 20
386.9731779466
 30
0.0
 11
423.4827089179
 21
387.4630228137
 31
0.0
  0
LINE
  5
36B
330
1F
100
AcDbEntity
  8
0
  6
Continuous
 62
     7
370
    25
100
AcDbLine
 10
414.5024527968
 20
376.2364292957
 30
0.0
 11
361.7531374325
 21
345.7848977149
 31
0.0
  0
LINE
  5
36C
330
1F
100
AcDbEntity
  8
0
  6
Continuous
 62
     7
370
    25
100
AcDbLine
 10
377.7329001751
 20
414.2820292871
 30
0.0
 11
377.7329001751
 21
414.1595680703
 31
0.0
  0
LINE
  5
36D
330
1F
100
AcDbEntity
  8
0
  6
Continuous
 62
     7
370
    25
100
AcDbLine
 10
431.0487514766
 20
383.5034434714
 30
0.0
 11
377.7329001751
 21
414.2820292871
 31
0.0
  0
LINE
  5
36E
330
1F
100
AcDbEntity
  8
0
  6
Continuous
 62
     7
370
    25
100
AcDbLine
 10
431.0487514766
 20
366.6010884754
 30
0.0
 11
431.0487514766
 21
383.5034434714
 31
0.0
  0
LINE
  5
36F
330
1F
100
AcDbEntity
  8
0
  6
Continuous
 62
     7
370
    25
100
AcDbLine
 10
431.0487514766
 20
383.5034434714
 30
0.0
 11
431.3315941891
 21
383.6667250937
 31
0.0
  0
LINE
  5
370
330
1F
100
AcDbEntity
  8
0
  6
Continuous
 62
     7
370
    25
100
AcDbLine
 10
377.7329001751
 20
414.2820292871
 30
0.0
 11
378.0157428876
 21
414.4453109095
 31
0.0
  0
LINE
  5
371
330
1F
100
AcDbEntity
  8
0
  6
Continuous
 62
     7
370
    25
100
AcDbLine
 10
431.3315941891
 20
383.6667250937
 30
0.0
 11
378.0157428876
 21
414.4453109095
 31
0.0
  0
LINE
  5
372
330
1F
100
AcDbEntity
  8
0
  6
Continuous
 62
     7
370
    25
100
AcDbLine
 10
431.3315941891
 20
366.437806853
 30
0.0
 11
431.3315941891
 21
383.6667250937
 31
0.0
  0
LINE
  5
373
330
1F
100
AcDbEntity
  8
0
  6
Continuous
 62
     7
370
    25
100
AcDbLine
 10
300.3754183133
 20
369.6245055704
 30
0.0
 11
300.3754183133
 21
364.1536821308
 31
0.0
  0
LINE
  5
374
330
1F
100
AcDbEntity
  8
0
  6
Continuous
 62
     7
370
    25
100
AcDbLine
 10
353.6912696148
 20
338.8459197547
 30
0.0
 11
300.3754183133
 21
369.6245055704
 31
0.0
  0
LINE
  5
375
330
1F
100
AcDbEntity
  8
0
  6
Continuous
 62
     7
370
    25
100
AcDbLine
 10
353.6912696148
 20
311.9000729624
 30
0.0
 11
353.6912696148
 21
338.8459197547
 31
0.0
  0
LINE
  5
376
330
1F
100
AcDbEntity
  8
0
  6
Continuous
 62
     7
370
    25
100
AcDbLine
 10
336.0136000851
 20
322.1051743602
 30
0.0
 11
353.6912696148
 21
311.9000729624
 31
0.0
  0
LINE
  5
377
330
1F
100
AcDbEntity
  8
0
  6
Continuous
 62
     7
370
    25
100
AcDbLine
 10
336.0136000851
 20
343.3352354693
 30
0.0
 11
336.0136000851
 21
322.1051743602
 31
0.0
  0
LINE
  5
378
330
1F
100
AcDbEntity
  8
0
  6
Continuous
 62
     7
370
    25
100
AcDbLine
 10
336.0136000851
 20
343.3352354693
 30
0.0
 11
336.0984528989
 21
343.2862509825
 31
0.0
  0
LINE
  5
379
330
1F
100
AcDbEntity
  8
0
  6
Continuous
 62
     7
370
    25
100
AcDbLine
 10
336.0984528989
 20
343.2862509825
 30
0.0
 11
336.0984528989
 21
343.6291981235
 31
0.0
  0
LWPOLYLINE
  5
37A
330
1F
100
AcDbEntity
  8
0
  6
Continuous
 62
     7
370
    25
100
AcDbPolyline
 90
        9
 70
   128
 43
0.0
 10
336.0984528989
 20
343.6291981235
 10
336.0952233809
 20
343.649811083
 10
336.086026492
 20
343.6710146282
 10
336.072262375
 20
343.6895807118
 10
336.056026492
 20
343.7026828156
 10
336.039790609
 20
343.7083262633
 10
336.026026492
 20
343.705651891
 10
336.016829603
 20
343.6950668477
 10
336.0136000851
 20
343.6781826102
  0
LINE
  5
37B
330
1F
100
AcDbEntity
  8
0
  6
Continuous
 62
     7
370
    25
100
AcDbLine
 10
336.0136000851
 20
343.6781826102
 30
0.0
 11
336.0136000851
 21
343.5801977128
 31
0.0
  0
LINE
  5
37C
330
1F
100
AcDbEntity
  8
0
  6
Continuous
 62
     7
370
    25
100
AcDbLine
 10
300.3754183133
 20
364.1536821308
 30
0.0
 11
307.0929327346
 21
360.2757435996
 31
0.0
  0
LINE
  5
37D
330
1F
100
AcDbEntity
  8
0
  6
Continuous
 62
     7
370
    25
100
AcDbLine
 10
300.6582610258
 20
369.7877871928
 30
0.0
 11
300.3754183133
 21
369.6245055704
 31
0.0
  0
LINE
  5
37E
330
1F
100
AcDbEntity
  8
0
  6
Continuous
 62
     7
370
    25
100
AcDbLine
 10
353.9741123272
 20
339.009201377
 30
0.0
 11
300.6582610258
 21
369.7877871928
 31
0.0
  0
LINE
  5
37F
330
1F
100
AcDbEntity
  8
0
  6
Continuous
 62
     7
370
    25
100
AcDbLine
 10
353.9741123272
 20
339.009201377
 30
0.0
 11
353.6912696148
 21
338.8459197547
 31
0.0
  0
LINE
  5
380
330
1F
100
AcDbEntity
  8
0
  6
Continuous
 62
     7
370
    25
100
AcDbLine
 10
353.9741123272
 20
312.0633545848
 30
0.0
 11
353.9741123272
 21
339.009201377
 31
0.0
  0
LINE
  5
381
330
1F
100
AcDbEntity
  8
0
  6
Continuous
 62
     7
370
    25
100
AcDbLine
 10
353.9741123272
 20
312.0633545848
 30
0.0
 11
353.6912696148
 21
311.9000729624
 31
0.0
  0
ARC
  5
382
330
1F
100
AcDbEntity
  8
0
  6
Continuous
 62
     7
370
    25
100
AcDbCircle
 10
336.4546927906
 20
343.5631650156
 30
0.0
 40
0.4414214399474763
100
AcDbArc
 50
177.7886348381
 51
206.9936604194
  0
ARC
  5
383
330
1F
100
AcDbEntity
  8
0
  6
Continuous
 62
     7
370
    25
100
AcDbCircle
 10
307.4359340664
 20
360.2378828835
 30
0.0
 40
0.3450845511805666
100
AcDbArc
 50
173.7011524992
 51
234.9866671074
  0
LINE
  5
384
330
1F
100
AcDbEntity
  8
0
  6
Continuous
 62
     7
370
    25
100
AcDbLine
 10
336.0984528989
 20
343.384219956
 30
0.0
 11
336.0136000851
 21
343.3352354693
 31
0.0
  0
LINE
  5
385
330
1F
100
AcDbEntity
  8
0
  6
Continuous
 62
     7
370
    25
100
AcDbLine
 10
307.0929327346
 20
359.7041650313
 30
0.0
 11
307.0929327346
 21
360.030781356
 31
0.0
  0
LINE
  5
386
330
1F
100
AcDbEntity
  8
0
  6
Continuous
 62
     7
370
    25
100
AcDbLine
 10
307.0929327346
 20
360.030781356
 30
0.0
 11
307.1406938859
 21
360.0583532818
 31
0.0
  0
LINE
  5
387
330
1F
100
AcDbEntity
  8
0
  6
Continuous
 62
     7
370
    25
100
AcDbLine
 10
307.0929327346
 20
359.7041650313
 30
0.0
 11
307.3829057903
 21
359.8715629132
 31
0.0
  0
LINE
  5
388
330
1F
100
AcDbEntity
  8
0
  6
Continuous
 62
     7
370
    25
100
AcDbLine
 10
300.5875503477
 20
363.7862586704
 30
0.0
 11
307.0929327346
 21
360.030781356
 31
0.0
  0
LINE
  5
389
330
1F
100
AcDbEntity
  8
0
  6
Continuous
 62
     7
370
    25
100
AcDbLine
 10
300.5875503477
 20
363.4596423457
 30
0.0
 11
307.0929327346
 21
359.7041650313
 31
0.0
  0
LINE
  5
38A
330
1F
100
AcDbEntity
  8
0
  6
Continuous
 62
     7
370
    25
100
AcDbLine
 10
300.3754183133
 20
369.6245055704
 30
0.0
 11
378.0157428876
 21
414.4453109095
 31
0.0
  0
LINE
  5
38B
330
1F
100
AcDbEntity
  8
0
  6
Continuous
 62
     7
370
    25
100
AcDbLine
 10
300.0925756008
 20
369.7877871928
 30
0.0
 11
300.3754183133
 21
369.6245055704
 31
0.0
  0
LINE
  5
38C
330
1F
100
AcDbEntity
  8
0
  6
Continuous
 62
     7
370
    25
100
AcDbLine
 10
300.0925756008
 20
369.7877871928
 30
0.0
 11
377.7329001751
 21
414.6085925318
 31
0.0
  0
LINE
  5
38D
330
1F
100
AcDbEntity
  8
0
  6
Continuous
 62
     7
370
    25
100
AcDbLine
 10
377.7329001751
 20
414.6085925318
 30
0.0
 11
378.0157428876
 21
414.4453109095
 31
0.0
  0
LINE
  5
38E
330
1F
100
AcDbEntity
  8
0
  6
Continuous
 62
     7
370
    25
100
AcDbLine
 10
300.0925756008
 20
364.3169637531
 30
0.0
 11
300.0925756008
 21
369.7877871928
 31
0.0
  0
ARC
  5
38F
330
1F
100
AcDbEntity
  8
0
  6
Continuous
 62
     7
370
    25
100
AcDbCircle
 10
300.8359831437
 20
364.1746403864
 30
0.0
 40
0.4610414422716149
100
AcDbArc
 50
182.6054784856
 51
237.39452166
  0
ARC
  5
390
330
1F
100
AcDbEntity
  8
0
  6
Continuous
 62
     7
370
    25
100
AcDbCircle
 10
301.1672268718
 20
364.3658663497
 30
0.0
 40
1.075763365300325
100
AcDbArc
 50
182.6054784857
 51
237.39452166
  0
LINE
  5
391
330
1F
100
AcDbEntity
  8
0
  6
Continuous
 62
     7
370
    25
100
AcDbLine
 10
301.4360784851
 20
288.4195284634
 30
0.0
 11
386.2888922275
 21
239.435041754
 31
0.0
  0
LINE
  5
392
330
1F
100
AcDbEntity
  8
0
  6
Continuous
 62
     7
370
    25
100
AcDbLine
 10
301.4360784851
 20
362.9697974786
 30
0.0
 11
301.4360784851
 21
288.4195284634
 31
0.0
  0
LINE
  5
393
330
1F
100
AcDbEntity
  8
0
  6
Continuous
 62
     7
370
    25
100
AcDbLine
 10
386.2888922275
 20
298.2259802098
 30
0.0
 11
386.2888922275
 21
239.435041754
 31
0.0
  0
LINE
  5
394
330
1F
100
AcDbEntity
  8
0
  6
Continuous
 62
     7
370
    25
100
AcDbLine
 10
386.2888922275
 20
239.435041754
 30
0.0
 11
462.9392673081
 21
283.6843614148
 31
0.0
  0
LINE
  5
395
330
1F
100
AcDbEntity
  8
0
  6
Continuous
 62
     7
370
    25
100
AcDbLine
 10
462.9392673081
 20
342.4752998706
 30
0.0
 11
386.2888922275
 21
298.2259802098
 31
0.0
  0
LINE
  5
396
330
1F
100
AcDbEntity
  8
0
  6
Continuous
 62
     7
370
    25
100
AcDbLine
 10
462.9392673081
 20
342.4752998706
 30
0.0
 11
462.9392673081
 21
283.6843614148
 31
0.0
  0
LINE
  5
397
330
1F
100
AcDbEntity
  8
0
  6
Continuous
 62
     7
370
    25
100
AcDbLine
 10
408.0811738872
 20
367.138556346
 30
0.0
 11
414.5024527968
 21
363.4316309356
 31
0.0
  0
LINE
  5
398
330
1F
100
AcDbEntity
  8
0
  6
Continuous
 62
     7
370
    25
100
AcDbLine
 10
414.1488994062
 20
370.6413797284
 30
0.0
 11
408.0811738872
 21
367.138556346
 31
0.0
  0
LINE
  5
399
330
1F
100
AcDbEntity
  8
0
  6
Continuous
 62
     7
370
    25
100
AcDbLine
 10
414.1488994062
 20
370.6413797284
 30
0.0
 11
414.5024527968
 21
370.4372777005
 31
0.0
  0
LINE
  5
39A
330
1F
100
AcDbEntity
  8
0
  6
Continuous
 62
     7
370
    25
100
AcDbLine
 10
447.325600243
 20
340.4673684982
 30
0.0
 11
394.7176602613
 21
310.0974511886
 31
0.0
  0
LWPOLYLINE
  5
39B
330
1F
100
AcDbEntity
  8
0
  6
Continuous
 62
     7
370
    25
100
AcDbPolyline
 90
       26
 70
   128
 43
0.0
 10
397.6733114046
 20
307.982057146
 10
397.5544721853
 20
307.9288421023
 10
397.4164419995
 20
307.8943601328
 10
397.2678937913
 20
307.8807778663
 10
397.118161391
 20
307.8889487268
 10
396.976653036
 20
307.9183593089
 10
396.8522602167
 20
307.9671616377
 10
396.7527989913
 20
308.0322892833
 10
396.6845188745
 20
308.1096500362
 10
396.6517101571
 20
308.1943830359
 10
396.6564343315
 20
308.2811641962
 10
396.6983945605
 20
308.3645407379
 10
396.7749543284
 20
308.439273806
 10
396.8813031037
 20
308.5006676472
 10
397.0107586015
 20
308.5448646605
 10
397.1551866568
 20
308.569087785
 10
397.3055123239
 20
308.5718149929
 10
397.452290088
 20
308.5528749235
 10
397.5862973626
 20
308.5134576511
 10
397.6991139776
 20
308.4560399078
 10
397.7836512504
 20
308.3842294617
 10
397.834597393
 20
308.3025384272
 10
397.8487512721
 20
308.2160997524
 10
397.8252235473
 20
308.1303446972
 10
397.7654925521
 20
308.050661567
 10
397.6733114046
 20
307.982057146
  0
LWPOLYLINE
  5
39C
330
1F
100
AcDbEntity
  8
0
  6
Continuous
 62
     7
370
    25
100
AcDbPolyline
 90
       26
 70
   128
 43
0.0
 10
446.0394152377
 20
335.9032145704
 10
445.9205760185
 20
335.8499995267
 10
445.7825458326
 20
335.8155175571
 10
445.6339976245
 20
335.8019352907
 10
445.4842652242
 20
335.8101061511
 10
445.3427568692
 20
335.8395167332
 10
445.2183640498
 20
335.888319062
 10
445.1189028245
 20
335.9534467076
 10
445.0506227077
 20
336.0308074605
 10
445.0178139903
 20
336.1155404602
 10
445.0225381647
 20
336.2023216206
 10
445.0644983936
 20
336.2856981622
 10
445.1410581616
 20
336.3604312304
 10
445.2474069368
 20
336.4218250715
 10
445.3768624346
 20
336.4660220848
 10
445.52129049
 20
336.4902452094
 10
445.671616157
 20
336.4929724172
 10
445.8183939212
 20
336.4740323478
 10
445.9524011957
 20
336.4346150754
 10
446.0652178108
 20
336.3771973322
 10
446.1497550835
 20
336.3053868861
 10
446.2007012262
 20
336.2236958516
 10
446.2148551052
 20
336.1372571768
 10
446.1913273804
 20
336.0515021216
 10
446.1315963852
 20
335.9718189914
 10
446.0394152377
 20
335.9032145704
  0
LINE
  5
39D
330
1F
100
AcDbEntity
  8
0
  6
Continuous
 62
     7
370
    25
100
AcDbLine
 10
378.0864535657
 20
326.8944958286
 30
0.0
 11
378.0864535657
 21
355.2139204163
 31
0.0
  0
LINE
  5
39E
330
1F
100
AcDbEntity
  8
0
  6
Continuous
 62
     7
370
    25
100
AcDbLine
 10
407.9833839127
 20
372.4730509347
 30
0.0
 11
408.0811738872
 21
367.138556346
 31
0.0
  0
LINE
  5
39F
330
1F
100
AcDbEntity
  8
0
  6
Continuous
 62
     7
370
    25
100
AcDbLine
 10
397.3155010847
 20
343.7741854742
 30
0.0
 11
425.1846485017
 21
327.685669124
 31
0.0
  0
LINE
  5
3A0
330
1F
100
AcDbEntity
  8
0
  6
Continuous
 62
     7
370
    25
100
AcDbLine
 10
390.7628454182
 20
319.5765705786
 30
0.0
 11
397.3155010847
 21
343.7741854742
 31
0.0
  0
ELLIPSE
  5
3A1
330
1F
100
AcDbEntity
  8
0
  6
Continuous
 62
     7
370
    25
100
AcDbEllipse
 10
435.7323972313
 20
347.1786473862
 30
0.0
 11
-0.2061300555366188
 21
0.3428480592081087
 31
0.0
210
0.0
220
0.0
230
1.0
 40
0.5651676105
 41
0.8338383635133328
 42
2.603627143724981
  0
LINE
  5
3A2
330
1F
100
AcDbEntity
  8
0
  6
Continuous
 62
     7
370
    25
100
AcDbLine
 10
390.7628454182
 20
319.5765705786
 30
0.0
 11
381.3956586208
 21
324.9841324135
 31
0.0
  0
LINE
  5
3A3
330
1F
100
AcDbEntity
  8
0
  6
Continuous
 62
     7
370
    25
100
AcDbLine
 10
379.1885659466
 20
326.2582598938
 30
0.0
 11
378.0864535657
 21
326.8944958286
 31
0.0
  0
LINE
  5
3A4
330
1F
100
AcDbEntity
  8
0
  6
Continuous
 62
     7
370
    25
100
AcDbLine
 10
362.9586253776
 20
346.1417689985
 30
0.0
 11
361.8937082765
 21
345.5270054416
 31
0.0
  0
LINE
  5
3A5
330
1F
100
AcDbEntity
  8
0
  6
Continuous
 62
     7
370
    25
100
AcDbLine
 10
368.6431623988
 20
325.1499384034
 30
0.0
 11
362.9586253776
 21
346.1417689985
 31
0.0
  0
LINE
  5
3A6
330
1F
100
AcDbEntity
  8
0
  6
Continuous
 62
     7
370
    25
100
AcDbLine
 10
378.0864535657
 20
326.8944958286
 30
0.0
 11
371.8538132143
 21
323.2964691399
 31
0.0
  0
LINE
  5
3A7
330
1F
100
AcDbEntity
  8
0
  6
Continuous
 62
     7
370
    25
100
AcDbLine
 10
414.1488994062
 20
376.0323272677
 30
0.0
 11
414.1488994062
 21
370.6413797284
 31
0.0
  0
LINE
  5
3A8
330
1F
100
AcDbEntity
  8
0
  6
Continuous
 62
     7
370
    25
100
AcDbLine
 10
394.349909533
 20
321.6473386145
 30
0.0
 11
400.2481747566
 21
342.0811889998
 31
0.0
  0
LINE
  5
3A9
330
1F
100
AcDbEntity
  8
0
  6
Continuous
 62
     7
370
    25
100
AcDbLine
 10
404.5373647275
 20
315.7662459133
 30
0.0
 11
394.349909533
 21
321.6473386145
 31
0.0
  0
LINE
  5
3AA
330
1F
100
AcDbEntity
  8
0
  6
Continuous
 62
     7
370
    25
100
AcDbLine
 10
361.8937082765
 20
337.9781482173
 30
0.0
 11
364.9874172374
 21
327.2603551637
 31
0.0
  0
LINE
  5
3AB
330
1F
100
AcDbEntity
  8
0
  6
Continuous
 62
     7
370
    25
100
AcDbLine
 10
394.349909533
 20
321.6473386145
 30
0.0
 11
390.7628454182
 21
319.5765705786
 31
0.0
  0
LINE
  5
3AC
330
1F
100
AcDbEntity
  8
0
  6
PHANTOM
 62
     1
370
    18
100
AcDbLine
 10
371.5457158397
 20
383.0748292127
 30
0.0
 11
371.5457158397
 21
382.9931884015
 31
0.0
  0
LINE
  5
3AD
330
1F
100
AcDbEntity
  8
0
  6
PHANTOM
 62
     1
370
    18
100
AcDbLine
 10
369.4951061743
 20
384.2586209748
 30
0.0
 11
369.4951061743
 21
382.9523679959
 31
0.0
  0
LINE
  5
3AE
330
1F
100
AcDbEntity
  8
0
  6
PHANTOM
 62
     1
370
    18
100
AcDbLine
 10
368.3637353244
 20
383.6871352965
 30
0.0
 11
368.3637353244
 21
383.6054944854
 31
0.0
  0
LINE
  5
3AF
330
1F
100
AcDbEntity
  8
0
  6
PHANTOM
 62
     1
370
    18
100
AcDbLine
 10
369.3536848181
 20
384.2586209748
 30
0.0
 11
369.3536848181
 21
383.0340088071
 31
0.0
  0
LINE
  5
3B0
330
1F
100
AcDbEntity
  8
0
  6
PHANTOM
 62
     1
370
    18
100
AcDbLine
 10
394.3145541939
 20
396.218999813
 30
0.0
 11
394.3145541939
 21
396.1373590018
 31
0.0
  0
LINE
  5
3B1
330
1F
100
AcDbEntity
  8
0
  6
PHANTOM
 62
     1
370
    18
100
AcDbLine
 10
392.2639445285
 20
397.4027915752
 30
0.0
 11
392.2639445285
 21
396.0965385962
 31
0.0
  0
LINE
  5
3B2
330
1F
100
AcDbEntity
  8
0
  6
PHANTOM
 62
     1
370
    18
100
AcDbLine
 10
391.1325736786
 20
396.8313058969
 30
0.0
 11
391.1325736786
 21
396.7496650857
 31
0.0
  0
LINE
  5
3B3
330
1F
100
AcDbEntity
  8
0
  6
PHANTOM
 62
     1
370
    18
100
AcDbLine
 10
392.1225231723
 20
397.4027915752
 30
0.0
 11
392.1225231723
 21
396.1781794074
 31
0.0
  0
LINE
  5
3B4
330
1F
100
AcDbEntity
  8
0
  6
PHANTOM
 62
     1
370
    18
100
AcDbLine
 10
333.0791069432
 20
360.8685285711
 30
0.0
 11
333.0791069432
 21
360.7868877599
 31
0.0
  0
LINE
  5
3B5
330
1F
100
AcDbEntity
  8
0
  6
PHANTOM
 62
     1
370
    18
100
AcDbLine
 10
331.0284972777
 20
362.0523203332
 30
0.0
 11
331.0284972777
 21
360.7460673543
 31
0.0
  0
LINE
  5
3B6
330
1F
100
AcDbEntity
  8
0
  6
PHANTOM
 62
     1
370
    18
100
AcDbLine
 10
329.8971264278
 20
361.480834655
 30
0.0
 11
329.8971264278
 21
361.3991938438
 31
0.0
  0
LINE
  5
3B7
330
1F
100
AcDbEntity
  8
0
  6
PHANTOM
 62
     1
370
    18
100
AcDbLine
 10
330.8870759215
 20
362.0523203332
 30
0.0
 11
330.8870759215
 21
360.8277081655
 31
0.0
  0
LINE
  5
3B8
330
1F
100
AcDbEntity
  8
0
  6
PHANTOM
 62
     1
370
    18
100
AcDbLine
 10
355.8479452974
 20
374.0126991714
 30
0.0
 11
355.8479452974
 21
373.9310583603
 31
0.0
  0
LINE
  5
3B9
330
1F
100
AcDbEntity
  8
0
  6
PHANTOM
 62
     1
370
    18
100
AcDbLine
 10
353.7973356319
 20
375.1964909336
 30
0.0
 11
353.7973356319
 21
373.8902379547
 31
0.0
  0
LINE
  5
3BA
330
1F
100
AcDbEntity
  8
0
  6
PHANTOM
 62
     1
370
    18
100
AcDbLine
 10
352.6659647821
 20
374.6250052553
 30
0.0
 11
352.6659647821
 21
374.5433644441
 31
0.0
  0
LINE
  5
3BB
330
1F
100
AcDbEntity
  8
0
  6
PHANTOM
 62
     1
370
    18
100
AcDbLine
 10
353.6559142757
 20
375.1964909336
 30
0.0
 11
353.6559142757
 21
373.9718787658
 31
0.0
  0
LINE
  5
3BC
330
1F
100
AcDbEntity
  8
0
  6
PHANTOM
 62
     1
370
    18
100
AcDbLine
 10
426.0262632587
 20
351.5008100234
 30
0.0
 11
426.3798166493
 21
351.7049120513
 31
0.0
  0
LINE
  5
3BD
330
1F
100
AcDbEntity
  8
0
  6
PHANTOM
 62
     1
370
    18
100
AcDbLine
 10
426.0262632587
 20
350.1126906431
 30
0.0
 11
426.3798166493
 21
350.3167926711
 31
0.0
  0
LINE
  5
3BE
330
1F
100
AcDbEntity
  8
0
  6
PHANTOM
 62
     1
370
    18
100
AcDbLine
 10
426.0262632587
 20
344.4785590411
 30
0.0
 11
426.3798166493
 21
344.6826610691
 31
0.0
  0
LINE
  5
3BF
330
1F
100
AcDbEntity
  8
0
  6
PHANTOM
 62
     1
370
    18
100
AcDbLine
 10
426.0262632587
 20
343.0904396609
 30
0.0
 11
426.3798166493
 21
343.2945416889
 31
0.0
  0
LINE
  5
3C0
330
1F
100
AcDbEntity
  8
0
  6
PHANTOM
 62
     1
370
    18
100
AcDbLine
 10
379.8753790412
 20
324.8584716627
 30
0.0
 11
379.5218256506
 21
324.6543696348
 31
0.0
  0
LINE
  5
3C1
330
1F
100
AcDbEntity
  8
0
  6
PHANTOM
 62
     1
370
    18
100
AcDbLine
 10
379.8753790412
 20
323.4703522825
 30
0.0
 11
379.5218256506
 21
323.2662502546
 31
0.0
  0
LINE
  5
3C2
330
1F
100
AcDbEntity
  8
0
  6
PHANTOM
 62
     1
370
    18
100
AcDbLine
 10
429.0926135313
 20
345.3872656251
 30
0.0
 11
427.9000962289
 21
346.0756912103
 31
0.0
  0
LINE
  5
3C3
330
1F
100
AcDbEntity
  8
0
  6
PHANTOM
 62
     1
370
    18
100
AcDbLine
 10
428.5976387845
 20
344.5299442177
 30
0.0
 11
427.9000962289
 21
344.9326269637
 31
0.0
  0
LINE
  5
3C4
330
1F
100
AcDbEntity
  8
0
  6
PHANTOM
 62
     1
370
    18
100
AcDbLine
 10
425.4252224947
 20
346.3613411594
 30
0.0
 11
425.0621048785
 21
346.5709644972
 31
0.0
  0
LINE
  5
3C5
330
1F
100
AcDbEntity
  8
0
  6
PHANTOM
 62
     1
370
    18
100
AcDbLine
 10
428.9511921751
 20
344.7340462456
 30
0.0
 11
428.5976387845
 21
344.5299442177
 31
0.0
  0
LINE
  5
3C6
330
1F
100
AcDbEntity
  8
0
  6
PHANTOM
 62
     1
370
    18
100
AcDbLine
 10
429.0926135313
 20
345.3872656251
 30
0.0
 11
429.0926135313
 21
344.9789952192
 31
0.0
  0
LINE
  5
3C7
330
1F
100
AcDbEntity
  8
0
  6
PHANTOM
 62
     1
370
    18
100
AcDbLine
 10
426.6884504753
 20
344.5705257632
 30
0.0
 11
426.3798166493
 21
344.3923552479
 31
0.0
  0
LINE
  5
3C8
330
1F
100
AcDbEntity
  8
0
  6
PHANTOM
 62
     1
370
    18
100
AcDbLine
 10
426.6884504753
 20
343.6723308701
 30
0.0
 11
426.3798166493
 21
343.4941603548
 31
0.0
  0
LINE
  5
3C9
330
1F
100
AcDbEntity
  8
0
  6
PHANTOM
 62
     1
370
    18
100
AcDbLine
 10
434.8201784589
 20
347.5501367012
 30
0.0
 11
434.9383674699
 21
347.6183657649
 31
0.0
  0
LINE
  5
3CA
330
1F
100
AcDbEntity
  8
0
  6
PHANTOM
 62
     1
370
    18
100
AcDbLine
 10
434.8201784589
 20
346.6519418081
 30
0.0
 11
435.1737318495
 21
346.8560438361
 31
0.0
  0
LINE
  5
3CB
330
1F
100
AcDbEntity
  8
0
  6
PHANTOM
 62
     1
370
    18
100
AcDbLine
 10
434.8201784589
 20
335.79194901
 30
0.0
 11
435.1737318495
 21
335.996051038
 31
0.0
  0
LINE
  5
3CC
330
1F
100
AcDbEntity
  8
0
  6
PHANTOM
 62
     1
370
    18
100
AcDbLine
 10
434.8201784589
 20
334.8937541169
 30
0.0
 11
435.1737318495
 21
335.0978561449
 31
0.0
  0
LINE
  5
3CD
330
1F
100
AcDbEntity
  8
0
  6
PHANTOM
 62
     1
370
    18
100
AcDbLine
 10
307.0929327346
 20
360.2757435996
 30
0.0
 11
336.0136000851
 21
343.5801977128
 31
0.0
  0
LINE
  5
3CE
330
1F
100
AcDbEntity
  8
0
  6
PHANTOM
 62
     1
370
    18
100
AcDbLine
 10
336.0560333875
 20
343.7026788343
 30
0.0
 11
336.0136000851
 21
343.6781826102
 31
0.0
  0
LINE
  5
3CF
330
1F
100
AcDbEntity
  8
0
  6
PHANTOM
 62
     1
370
    18
100
AcDbLine
 10
336.0984528989
 20
343.6291821995
 30
0.0
 11
336.0136000851
 21
343.5801977128
 31
0.0
  0
LINE
  5
3D0
330
1F
100
AcDbEntity
  8
0
  6
PHANTOM
 62
     1
370
    18
100
AcDbLine
 10
300.5875503477
 20
363.7862586704
 30
0.0
 11
300.7997168622
 21
363.9087397922
 31
0.0
  0
LINE
  5
3D1
330
1F
100
AcDbEntity
  8
0
  6
PHANTOM
 62
     1
370
    18
100
AcDbLine
 10
300.5875503477
 20
363.7862586704
 30
0.0
 11
300.5875503477
 21
363.4596423457
 31
0.0
  0
LINE
  5
3D2
330
1F
100
AcDbEntity
  8
0
  6
PHANTOM
 62
     1
370
    18
100
AcDbLine
 10
300.3754183133
 20
364.1536821308
 30
0.0
 11
300.0925756008
 21
364.3169637531
 31
0.0
  0
ENDSEC
  0
SECTION
  2
OBJECTS
  0
DICTIONARY
  5
C
330
0
100
AcDbDictionary
281
     1
  3
ACAD_DETAILVIEWSTYLE
350
3DA
  3
ACAD_GROUP
350
D
  3
ACAD_LAYOUT
350
1A
  3
ACAD_MATERIAL
350
43
  3
ACAD_MLEADERSTYLE
350
6B
  3
ACAD_MLINESTYLE
350
17
  3
ACAD_PLOTSETTINGS
350
19
  3
ACAD_PLOTSTYLENAME
350
E
  3
ACAD_SCALELIST
350
47
  3
ACAD_SECTIONVIEWSTYLE
350
3DB
  3
ACAD_TABLESTYLE
350
69
  3
ACAD_VISUALSTYLE
350
2A
  3
ACDB_RECOMPOSE_DATA
350
3D7
  3
AcDbVariableDictionary
350
3D3
  0
SUN
  5
6D
330
29
100
AcDbSun
 90
        1
290
     0
 63
     7
421
 16777215
 40
1.0
291
     1
 91
  2455826
 92
 54000000
292
     0
 70
     2
 71
   256
280
     1
  0
DICTIONARY
  5
3DA
102
{ACAD_REACTORS
330
C
102
}
330
C
100
AcDbDictionary
281
     1
  0
DICTIONARY
  5
D
102
{ACAD_REACTORS
330
C
102
}
330
C
100
AcDbDictionary
281
     1
  0
DICTIONARY
  5
1A
102
{ACAD_REACTORS
330
C
102
}
330
C
100
AcDbDictionary
281
     1
  3
Layout1
350
1E
  3
Layout2
350
26
  3
Model
350
22
  0
DICTIONARY
  5
43
102
{ACAD_REACTORS
330
C
102
}
330
C
100
AcDbDictionary
281
     1
  3
ByBlock
350
45
  3
ByLayer
350
44
  3
Global
350
46
  0
DICTIONARY
  5
6B
102
{ACAD_REACTORS
330
C
102
}
330
C
100
AcDbDictionary
281
     1
  3
Standard
350
6C
  0
DICTIONARY
  5
17
102
{ACAD_REACTORS
330
C
102
}
330
C
100
AcDbDictionary
281
     1
  3
Standard
350
18
  0
DICTIONARY
  5
19
102
{ACAD_REACTORS
330
C
102
}
330
C
100
AcDbDictionary
281
     1
  0
ACDBDICTIONARYWDFLT
  5
E
102
{ACAD_REACTORS
330
C
102
}
330
C
100
AcDbDictionary
281
     1
  3
Normal
350
F
100
AcDbDictionaryWithDefault
340
F
  0
DICTIONARY
  5
47
102
{ACAD_REACTORS
330
C
102
}
330
C
100
AcDbDictionary
281
     1
  3
A0
350
48
  3
A1
350
49
  3
A2
350
4A
  3
A3
350
4B
  3
A4
350
4C
  3
A5
350
4D
  3
A6
350
4E
  3
A7
350
4F
  3
A8
350
50
  3
A9
350
51
  3
B0
350
52
  3
B1
350
53
  3
B2
350
54
  3
B3
350
55
  3
B4
350
56
  3
B5
350
57
  3
B6
350
58
  3
B7
350
59
  3
B8
350
5A
  3
B9
350
5B
  3
C0
350
5C
  3
C1
350
5D
  3
C2
350
5E
  3
C3
350
5F
  3
C4
350
60
  3
C5
350
61
  3
C6
350
62
  3
C7
350
63
  3
C8
350
64
  3
C9
350
65
  3
D0
350
66
  3
D1
350
67
  3
D2
350
68
  0
DICTIONARY
  5
3DB
102
{ACAD_REACTORS
330
C
102
}
330
C
100
AcDbDictionary
281
     1
  0
DICTIONARY
  5
69
102
{ACAD_REACTORS
330
C
102
}
330
C
100
AcDbDictionary
281
     1
  3
Standard
350
6A
  0
DICTIONARY
  5
2A
102
{ACAD_REACTORS
330
C
102
}
330
C
100
AcDbDictionary
281
     1
  3
2dWireframe
350
2F
  3
Basic
350
32
  3
Brighten
350
36
  3
ColorChange
350
3A
  3
Conceptual
350
34
  3
Dim
350
35
  3
EdgeColorOff
350
3D
  3
Facepattern
350
39
  3
Flat
350
2B
  3
FlatWithEdges
350
2C
  3
Gouraud
350
2D
  3
GouraudWithEdges
350
2E
  3
Hidden
350
31
  3
JitterOff
350
3B
  3
Linepattern
350
38
  3
OverhangOff
350
3C
  3
Realistic
350
33
  3
Shaded
350
42
  3
Shaded with edges
350
41
  3
Shades of Gray
350
3E
  3
Sketchy
350
3F
  3
Thicken
350
37
  3
Wireframe
350
30
  3
X-Ray
350
40
  0
XRECORD
  5
3D7
102
{ACAD_REACTORS
330
C
102
}
330
C
100
AcDbXrecord
280
     1
 90
        1
330
6A
  0
DICTIONARY
  5
3D3
102
{ACAD_REACTORS
330
C
102
}
330
C
100
AcDbDictionary
281
     1
  3
CANNOSCALE
350
3D4
  3
CMLEADERSTYLE
350
3D9
  3
CTABLESTYLE
350
3D8
  3
SECTIONTHICKNESSINC
350
3DC
  0
LAYOUT
  5
1E
102
{ACAD_REACTORS
330
1A
102
}
330
1A
100
AcDbPlotSettings
  1

  2
none_device
  4

  6

 40
0.0
 41
0.0
 42
0.0
 43
0.0
 44
0.0
 45
0.0
 46
0.0
 47
0.0
 48
0.0
 49
0.0
140
0.0
141
0.0
142
1.0
143
1.0
 70
   688
 72
     1
 73
     0
 74
     5
  7

 75
    16
 76
     0
 77
     2
 78
   300
147
1.0
148
0.0
149
0.0
100
AcDbLayout
  1
Layout1
 70
     1
 71
     1
 10
0.0
 20
0.0
 11
420.0
 21
297.0
 12
0.0
 22
0.0
 32
0.0
 14
1.0000000000E+20
 24
1.0000000000E+20
 34
1.0000000000E+20
 15
-1.0000000000E+20
 25
-1.0000000000E+20
 35
-1.0000000000E+20
146
0.0
 13
0.0
 23
0.0
 33
0.0
 16
1.0
 26
0.0
 36
0.0
 17
0.0
 27
1.0
 37
0.0
 76
     0
330
1B
  0
LAYOUT
  5
26
102
{ACAD_REACTORS
330
1A
102
}
330
1A
100
AcDbPlotSettings
  1

  2
none_device
  4

  6

 40
0.0
 41
0.0
 42
0.0
 43
0.0
 44
0.0
 45
0.0
 46
0.0
 47
0.0
 48
0.0
 49
0.0
140
0.0
141
0.0
142
1.0
143
1.0
 70
   688
 72
     1
 73
     0
 74
     5
  7

 75
    16
 76
     0
 77
     2
 78
   300
147
1.0
148
0.0
149
0.0
100
AcDbLayout
  1
Layout2
 70
     1
 71
     2
 10
0.0
 20
0.0
 11
0.0
 21
0.0
 12
0.0
 22
0.0
 32
0.0
 14
0.0
 24
0.0
 34
0.0
 15
0.0
 25
0.0
 35
0.0
146
0.0
 13
0.0
 23
0.0
 33
0.0
 16
1.0
 26
0.0
 36
0.0
 17
0.0
 27
1.0
 37
0.0
 76
     0
330
23
  0
LAYOUT
  5
22
102
{ACAD_REACTORS
330
1A
102
}
330
1A
100
AcDbPlotSettings
  1

  2
none_device
  4
Letter_(8.50_x_11.00_Inches)
  6

 40
6.35
 41
6.35
 42
6.35000508
 43
6.35000508
 44
215.9
 45
279.4
 46
0.0
 47
0.0
 48
0.0
 49
0.0
140
0.0
141
0.0
142
1.0
143
1.0
 70
  1712
 72
     1
 73
     0
 74
     0
  7

 75
     0
 76
     0
 77
     2
 78
   300
147
1.0
148
0.0
149
0.0
100
AcDbLayout
  1
Model
 70
     1
 71
     0
 10
0.0
 20
0.0
 11
594.0
 21
420.0
 12
0.0
 22
0.0
 32
0.0
 14
0.0
 24
0.0
 34
0.0
 15
594.0
 25
420.0
 35
0.0
146
0.0
 13
0.0
 23
0.0
 33
0.0
 16
1.0
 26
0.0
 36
0.0
 17
0.0
 27
1.0
 37
0.0
 76
     0
330
1F
331
29
  0
MATERIAL
  5
45
102
{ACAD_REACTORS
330
43
102
}
330
43
100
AcDbMaterial
  1
ByBlock
 72
     1
 94
      127
  0
MATERIAL
  5
44
102
{ACAD_REACTORS
330
43
102
}
330
43
100
AcDbMaterial
  1
ByLayer
 72
     1
 94
      127
  0
MATERIAL
  5
46
102
{ACAD_REACTORS
330
43
102
}
330
43
100
AcDbMaterial
  1
Global
 72
     1
 94
      127
  0
MLEADERSTYLE
  5
6C
102
{ACAD_REACTORS
330
6B
102
}
330
6B
100
AcDbMLeaderStyle
179
     2
170
     2
171
     1
172
     0
 90
        2
 40
0.0
 41
0.0
173
     1
 91
-1056964608
340
14
 92
       -2
290
     1
 42
2.0
291
     1
 43
8.0
  3
Standard
341
0
 44
4.0
300

342
11
174
     1
178
     6
175
     1
176
     0
 93
-1056964608
 45
4.0
292
     0
297
     0
 46
4.0
343
0
 94
-1056964608
 47
1.0
 49
1.0
140
1.0
293
     1
141
0.0
294
     1
177
     0
142
1.0
295
     0
296
     0
143
3.75
271
     0
272
     9
273
     9
298
     0
  0
MLINESTYLE
  5
18
102
{ACAD_REACTORS
330
17
102
}
330
17
100
AcDbMlineStyle
  2
Standard
 70
     0
  3

 62
   256
 51
90.0
 52
90.0
 71
     2
 49
0.5
 62
   256
  6
BYLAYER
 49
-0.5
 62
   256
  6
BYLAYER
  0
ACDBPLACEHOLDER
  5
F
102
{ACAD_REACTORS
330
E
102
}
330
E
  0
SCALE
  5
48
102
{ACAD_REACTORS
330
47
102
}
330
47
100
AcDbScale
 70
     0
300
1:1
140
1.0
141
1.0
290
     1
  0
SCALE
  5
49
102
{ACAD_REACTORS
330
47
102
}
330
47
100
AcDbScale
 70
     0
300
1:2
140
1.0
141
2.0
290
     0
  0
SCALE
  5
4A
102
{ACAD_REACTORS
330
47
102
}
330
47
100
AcDbScale
 70
     0
300
1:4
140
1.0
141
4.0
290
     0
  0
SCALE
  5
4B
102
{ACAD_REACTORS
330
47
102
}
330
47
100
AcDbScale
 70
     0
300
1:5
140
1.0
141
5.0
290
     0
  0
SCALE
  5
4C
102
{ACAD_REACTORS
330
47
102
}
330
47
100
AcDbScale
 70
     0
300
1:8
140
1.0
141
8.0
290
     0
  0
SCALE
  5
4D
102
{ACAD_REACTORS
330
47
102
}
330
47
100
AcDbScale
 70
     0
300
1:10
140
1.0
141
10.0
290
     0
  0
SCALE
  5
4E
102
{ACAD_REACTORS
330
47
102
}
330
47
100
AcDbScale
 70
     0
300
1:16
140
1.0
141
16.0
290
     0
  0
SCALE
  5
4F
102
{ACAD_REACTORS
330
47
102
}
330
47
100
AcDbScale
 70
     0
300
1:20
140
1.0
141
20.0
290
     0
  0
SCALE
  5
50
102
{ACAD_REACTORS
330
47
102
}
330
47
100
AcDbScale
 70
     0
300
1:30
140
1.0
141
30.0
290
     0
  0
SCALE
  5
51
102
{ACAD_REACTORS
330
47
102
}
330
47
100
AcDbScale
 70
     0
300
1:40
140
1.0
141
40.0
290
     0
  0
SCALE
  5
52
102
{ACAD_REACTORS
330
47
102
}
330
47
100
AcDbScale
 70
     0
300
1:50
140
1.0
141
50.0
290
     0
  0
SCALE
  5
53
102
{ACAD_REACTORS
330
47
102
}
330
47
100
AcDbScale
 70
     0
300
1:100
140
1.0
141
100.0
290
     0
  0
SCALE
  5
54
102
{ACAD_REACTORS
330
47
102
}
330
47
100
AcDbScale
 70
     0
300
2:1
140
2.0
141
1.0
290
     0
  0
SCALE
  5
55
102
{ACAD_REACTORS
330
47
102
}
330
47
100
AcDbScale
 70
     0
300
4:1
140
4.0
141
1.0
290
     0
  0
SCALE
  5
56
102
{ACAD_REACTORS
330
47
102
}
330
47
100
AcDbScale
 70
     0
300
8:1
140
8.0
141
1.0
290
     0
  0
SCALE
  5
57
102
{ACAD_REACTORS
330
47
102
}
330
47
100
AcDbScale
 70
     0
300
10:1
140
10.0
141
1.0
290
     0
  0
SCALE
  5
58
102
{ACAD_REACTORS
330
47
102
}
330
47
100
AcDbScale
 70
     0
300
100:1
140
100.0
141
1.0
290
     0
  0
SCALE
  5
59
102
{ACAD_REACTORS
330
47
102
}
330
47
100
AcDbScale
 70
     0
300
1/128" = 1'-0"
140
0.0078125
141
12.0
290
     0
  0
SCALE
  5
5A
102
{ACAD_REACTORS
330
47
102
}
330
47
100
AcDbScale
 70
     0
300
1/64" = 1'-0"
140
0.015625
141
12.0
290
     0
  0
SCALE
  5
5B
102
{ACAD_REACTORS
330
47
102
}
330
47
100
AcDbScale
 70
     0
300
1/32" = 1'-0"
140
0.03125
141
12.0
290
     0
  0
SCALE
  5
5C
102
{ACAD_REACTORS
330
47
102
}
330
47
100
AcDbScale
 70
     0
300
1/16" = 1'-0"
140
0.0625
141
12.0
290
     0
  0
SCALE
  5
5D
102
{ACAD_REACTORS
330
47
102
}
330
47
100
AcDbScale
 70
     0
300
3/32" = 1'-0"
140
0.09375
141
12.0
290
     0
  0
SCALE
  5
5E
102
{ACAD_REACTORS
330
47
102
}
330
47
100
AcDbScale
 70
     0
300
1/8" = 1'-0"
140
0.125
141
12.0
290
     0
  0
SCALE
  5
5F
102
{ACAD_REACTORS
330
47
102
}
330
47
100
AcDbScale
 70
     0
300
3/16" = 1'-0"
140
0.1875
141
12.0
290
     0
  0
SCALE
  5
60
102
{ACAD_REACTORS
330
47
102
}
330
47
100
AcDbScale
 70
     0
300
1/4" = 1'-0"
140
0.25
141
12.0
290
     0
  0
SCALE
  5
61
102
{ACAD_REACTORS
330
47
102
}
330
47
100
AcDbScale
 70
     0
300
3/8" = 1'-0"
140
0.375
141
12.0
290
     0
  0
SCALE
  5
62
102
{ACAD_REACTORS
330
47
102
}
330
47
100
AcDbScale
 70
     0
300
1/2" = 1'-0"
140
0.5
141
12.0
290
     0
  0
SCALE
  5
63
102
{ACAD_REACTORS
330
47
102
}
330
47
100
AcDbScale
 70
     0
300
3/4" = 1'-0"
140
0.75
141
12.0
290
     0
  0
SCALE
  5
64
102
{ACAD_REACTORS
330
47
102
}
330
47
100
AcDbScale
 70
     0
300
1" = 1'-0"
140
1.0
141
12.0
290
     0
  0
SCALE
  5
65
102
{ACAD_REACTORS
330
47
102
}
330
47
100
AcDbScale
 70
     0
300
1-1/2" = 1'-0"
140
1.5
141
12.0
290
     0
  0
SCALE
  5
66
102
{ACAD_REACTORS
330
47
102
}
330
47
100
AcDbScale
 70
     0
300
3" = 1'-0"
140
3.0
141
12.0
290
     0
  0
SCALE
  5
67
102
{ACAD_REACTORS
330
47
102
}
330
47
100
AcDbScale
 70
     0
300
6" = 1'-0"
140
6.0
141
12.0
290
     0
  0
SCALE
  5
68
102
{ACAD_REACTORS
330
47
102
}
330
47
100
AcDbScale
 70
     0
300
1'-0" = 1'-0"
140
12.0
141
12.0
290
     0
  0
TABLESTYLE
  5
6A
102
{ACAD_REACTORS
330
69
102
}
102
{ACAD_XDICTIONARY
360
3D5
102
}
330
69
100
AcDbTableStyle
  3
Standard
 70
     0
 71
     0
 40
0.06
 41
0.06
280
     0
281
     0
  7
Standard
140
4.5
170
     2
 62
     0
 63
   257
283
     0
 90
        4
 91
        0
  1

274
    -2
284
     1
 64
     0
275
    -2
285
     1
 65
     0
276
    -2
286
     1
 66
     0
277
    -2
287
     1
 67
     0
278
    -2
288
     1
 68
     0
279
    -2
289
     1
 69
     0
  7
Standard
140
6.0
170
     5
 62
     0
 63
   257
283
     0
 90
        4
 91
        0
  1

274
    -2
284
     1
 64
     0
275
    -2
285
     1
 65
     0
276
    -2
286
     1
 66
     0
277
    -2
287
     1
 67
     0
278
    -2
288
     1
 68
     0
279
    -2
289
     1
 69
     0
  7
Standard
140
4.5
170
     5
 62
     0
 63
   257
283
     0
 90
        4
 91
        0
  1

274
    -2
284
     1
 64
     0
275
    -2
285
     1
 65
     0
276
    -2
286
     1
 66
     0
277
    -2
287
     1
 67
     0
278
    -2
288
     1
 68
     0
279
    -2
289
     1
 69
     0
  0
VISUALSTYLE
  5
2F
102
{ACAD_REACTORS
330
2A
102
}
330
2A
100
AcDbVisualStyle
  2
2dWireframe
 70
     4
177
     3
291
     0
 70
    58
 90
        0
176
     1
 90
        2
176
     1
 90
        0
176
     1
 90
        0
176
     1
 40
0.6
176
     1
 40
30.0
176
     1
 62
     7
420
 16777215
176
     1
 90
        1
176
     1
 90
        4
176
     1
 62
     7
176
     1
 62
   257
176
     1
 90
        1
176
     1
 90
        1
176
     1
 40
1.0
176
     1
 90
        0
176
     1
 62
   257
176
     1
 40
1.0
176
     1
 90
        1
176
     1
 90
        6
176
     1
 90
        2
176
     1
 62
     7
176
     1
 90
        5
176
     1
 90
        0
176
     1
 90
        0
176
     1
290
     0
176
     1
 90
        1
176
     1
 40
0.0
176
     1
 90
        0
176
     1
290
     1
176
     1
290
     1
176
     1
290
     0
176
     1
290
     0
176
     1
290
     0
176
     1
290
     0
176
     1
290
     0
176
     1
290
     0
176
     1
290
     0
176
     1
 90
       50
176
     1
 40
0.0
176
     1
 40
1.0
176
     1
 90
        0
176
     1
 62
    18
420
        0
176
     1
 90
       50
176
     1
 90
        3
176
     1
 62
     5
420
      255
176
     1
290
     0
176
     1
 90
       50
176
     1
 90
       50
176
     1
 90
       50
176
     1
290
     0
176
     1
 90
       50
176
     1
 62
   256
176
     0
 40
1.0
176
     0
 90
        2
176
     1
  1
strokes_ogs.tif
176
     1
290
     0
176
     1
 40
1.0
176
     1
 40
1.0
176
     1
  0
VISUALSTYLE
  5
32
102
{ACAD_REACTORS
330
2A
102
}
330
2A
100
AcDbVisualStyle
  2
Basic
 70
     7
177
     3
291
     1
 70
    58
 90
        1
176
     1
 90
        0
176
     1
 90
        1
176
     1
 90
        0
176
     1
 40
0.6
176
     1
 40
30.0
176
     1
 62
     7
420
 16777215
176
     1
 90
        0
176
     1
 90
        4
176
     1
 62
     7
176
     1
 62
   257
176
     1
 90
        1
176
     1
 90
        1
176
     1
 40
1.0
176
     1
 90
        8
176
     1
 62
     7
176
     1
 40
1.0
176
     1
 90
        1
176
     1
 90
        6
176
     1
 90
        2
176
     1
 62
     7
176
     1
 90
        5
176
     1
 90
        0
176
     1
 90
        0
176
     1
290
     0
176
     1
 90
        1
176
     1
 40
0.0
176
     1
 90
        0
176
     1
290
     0
176
     1
290
     1
176
     1
290
     1
176
     1
290
     0
176
     1
290
     0
176
     1
290
     0
176
     1
290
     0
176
     1
290
     0
176
     1
290
     0
176
     1
 90
       50
176
     1
 40
0.0
176
     1
 40
1.0
176
     1
 90
        0
176
     1
 62
    18
420
        0
176
     1
 90
       50
176
     1
 90
        3
176
     1
 62
     5
420
      255
176
     1
290
     0
176
     1
 90
       50
176
     1
 90
       50
176
     1
 90
       50
176
     1
290
     0
176
     1
 90
       50
176
     1
 62
   256
176
     0
 40
1.0
176
     0
 90
        2
176
     1
  1
strokes_ogs.tif
176
     1
290
     0
176
     1
 40
1.0
176
     1
 40
1.0
176
     1
  0
VISUALSTYLE
  5
36
102
{ACAD_REACTORS
330
2A
102
}
330
2A
100
AcDbVisualStyle
  2
Brighten
 70
    12
177
     3
291
     1
 70
    58
 90
        2
176
     1
 90
        2
176
     1
 90
        0
176
     1
 90
        0
176
     1
 40
0.6
176
     1
 40
30.0
176
     1
 62
     7
420
 16777215
176
     1
 90
        1
176
     1
 90
        4
176
     1
 62
     7
176
     1
 62
   257
176
     1
 90
        1
176
     1
 90
        1
176
     1
 40
1.0
176
     1
 90
        8
176
     1
 62
     7
176
     1
 40
1.0
176
     1
 90
        1
176
     1
 90
        6
176
     1
 90
        2
176
     1
 62
     7
176
     1
 90
        5
176
     1
 90
        0
176
     1
 90
        0
176
     1
290
     0
176
     1
 90
        1
176
     1
 40
50.0
176
     1
 90
        0
176
     1
290
     0
176
     1
290
     1
176
     1
290
     1
176
     1
290
     0
176
     1
290
     0
176
     1
290
     0
176
     1
290
     0
176
     1
290
     0
176
     1
290
     0
176
     1
 90
       50
176
     1
 40
0.0
176
     1
 40
1.0
176
     1
 90
        0
176
     1
 62
    18
420
        0
176
     1
 90
       50
176
     1
 90
        3
176
     1
 62
     5
420
      255
176
     1
290
     0
176
     1
 90
       50
176
     1
 90
       50
176
     1
 90
       50
176
     1
290
     0
176
     1
 90
       50
176
     1
 62
   256
176
     0
 40
1.0
176
     0
 90
        2
176
     1
  1
strokes_ogs.tif
176
     1
290
     0
176
     1
 40
1.0
176
     1
 40
1.0
176
     1
  0
VISUALSTYLE
  5
3A
102
{ACAD_REACTORS
330
2A
102
}
330
2A
100
AcDbVisualStyle
  2
ColorChange
 70
    16
177
     3
291
     1
 70
    58
 90
        2
176
     1
 90
        2
176
     1
 90
        3
176
     1
 90
        0
176
     1
 40
0.6
176
     1
 40
30.0
176
     1
 62
     8
420
  8421504
176
     1
 90
        1
176
     1
 90
        4
176
     1
 62
     7
176
     1
 62
   257
176
     1
 90
        1
176
     1
 90
        1
176
     1
 40
1.0
176
     1
 90
        8
176
     1
 62
     8
420
  8421504
176
     1
 40
1.0
176
     1
 90
        1
176
     1
 90
        6
176
     1
 90
        2
176
     1
 62
     7
176
     1
 90
        5
176
     1
 90
        0
176
     1
 90
        0
176
     1
290
     0
176
     1
 90
        1
176
     1
 40
0.0
176
     1
 90
        0
176
     1
290
     0
176
     1
290
     1
176
     1
290
     1
176
     1
290
     0
176
     1
290
     0
176
     1
290
     0
176
     1
290
     0
176
     1
290
     0
176
     1
290
     0
176
     1
 90
       50
176
     1
 40
0.0
176
     1
 40
1.0
176
     1
 90
        0
176
     1
 62
    18
420
        0
176
     1
 90
       50
176
     1
 90
        3
176
     1
 62
     5
420
      255
176
     1
290
     0
176
     1
 90
       50
176
     1
 90
       50
176
     1
 90
       50
176
     1
290
     0
176
     1
 90
       50
176
     1
 62
   256
176
     0
 40
1.0
176
     0
 90
        2
176
     1
  1
strokes_ogs.tif
176
     1
290
     0
176
     1
 40
1.0
176
     1
 40
1.0
176
     1
  0
VISUALSTYLE
  5
34
102
{ACAD_REACTORS
330
2A
102
}
330
2A
100
AcDbVisualStyle
  2
Conceptual
 70
     9
177
     3
291
     0
 70
    58
 90
        3
176
     1
 90
        2
176
     1
 90
        0
176
     1
 90
        0
176
     1
 40
0.6
176
     1
 40
30.0
176
     1
 62
     7
420
 16777215
176
     1
 90
        2
176
     1
 90
        2
176
     1
 62
     7
176
     1
 62
   257
176
     1
 90
        1
176
     1
 90
        1
176
     1
 40
179.0
176
     1
 90
        8
176
     1
 62
     7
176
     1
 40
1.0
176
     1
 90
        1
176
     1
 90
        6
176
     1
 90
        2
176
     1
 62
     7
176
     1
 90
        3
176
     1
 90
        0
176
     1
 90
        0
176
     1
290
     0
176
     1
 90
        1
176
     1
 40
0.0
176
     1
 90
        0
176
     1
290
     0
176
     1
290
     1
176
     1
290
     1
176
     1
290
     0
176
     1
290
     0
176
     1
290
     0
176
     1
290
     0
176
     1
290
     0
176
     1
290
     0
176
     1
 90
       50
176
     1
 40
0.0
176
     1
 40
1.0
176
     1
 90
        0
176
     1
 62
    18
420
        0
176
     1
 90
       50
176
     1
 90
        3
176
     1
 62
     5
420
      255
176
     1
290
     0
176
     1
 90
       50
176
     1
 90
       50
176
     1
 90
       50
176
     1
290
     0
176
     1
 90
       50
176
     1
 62
   256
176
     0
 40
1.0
176
     0
 90
        2
176
     1
  1
strokes_ogs.tif
176
     1
290
     0
176
     1
 40
1.0
176
     1
 40
1.0
176
     1
  0
VISUALSTYLE
  5
35
102
{ACAD_REACTORS
330
2A
102
}
330
2A
100
AcDbVisualStyle
  2
Dim
 70
    11
177
     3
291
     1
 70
    58
 90
        2
176
     1
 90
        2
176
     1
 90
        0
176
     1
 90
        0
176
     1
 40
0.6
176
     1
 40
30.0
176
     1
 62
     7
420
 16777215
176
     1
 90
        1
176
     1
 90
        4
176
     1
 62
     7
176
     1
 62
   257
176
     1
 90
        1
176
     1
 90
        1
176
     1
 40
1.0
176
     1
 90
        8
176
     1
 62
     7
176
     1
 40
1.0
176
     1
 90
        1
176
     1
 90
        6
176
     1
 90
        2
176
     1
 62
     7
176
     1
 90
        5
176
     1
 90
        0
176
     1
 90
        0
176
     1
290
     0
176
     1
 90
        1
176
     1
 40
-50.0
176
     1
 90
        0
176
     1
290
     0
176
     1
290
     1
176
     1
290
     1
176
     1
290
     0
176
     1
290
     0
176
     1
290
     0
176
     1
290
     0
176
     1
290
     0
176
     1
290
     0
176
     1
 90
       50
176
     1
 40
0.0
176
     1
 40
1.0
176
     1
 90
        0
176
     1
 62
    18
420
        0
176
     1
 90
       50
176
     1
 90
        3
176
     1
 62
     5
420
      255
176
     1
290
     0
176
     1
 90
       50
176
     1
 90
       50
176
     1
 90
       50
176
     1
290
     0
176
     1
 90
       50
176
     1
 62
   256
176
     0
 40
1.0
176
     0
 90
        2
176
     1
  1
strokes_ogs.tif
176
     1
290
     0
176
     1
 40
1.0
176
     1
 40
1.0
176
     1
  0
VISUALSTYLE
  5
3D
102
{ACAD_REACTORS
330
2A
102
}
330
2A
100
AcDbVisualStyle
  2
EdgeColorOff
 70
    22
177
     3
291
     1
 70
    58
 90
        2
176
     0
 90
        2
176
     0
 90
        0
176
     0
 90
        0
176
     0
 40
0.6
176
     0
 40
30.0
176
     0
 62
     7
420
 16777215
176
     0
 90
        1
176
     0
 90
        4
176
     0
 62
     7
176
     0
 62
   257
176
     0
 90
        1
176
     0
 90
        1
176
     0
 40
1.0
176
     0
 90
        8
176
     2
 62
     7
176
     0
 40
1.0
176
     0
 90
        1
176
     0
 90
        6
176
     0
 90
        2
176
     0
 62
     7
176
     0
 90
        5
176
     0
 90
        0
176
     0
 90
        0
176
     0
290
     0
176
     0
 90
        1
176
     0
 40
0.0
176
     0
 90
        0
176
     0
290
     0
176
     0
290
     1
176
     0
290
     1
176
     0
290
     0
176
     0
290
     0
176
     0
290
     0
176
     0
290
     0
176
     0
290
     0
176
     0
290
     0
176
     0
 90
       50
176
     0
 40
0.0
176
     0
 40
1.0
176
     0
 90
        0
176
     0
 62
    18
420
        0
176
     0
 90
       50
176
     0
 90
        3
176
     0
 62
     5
420
      255
176
     0
290
     0
176
     0
 90
       50
176
     0
 90
       50
176
     0
 90
       50
176
     0
290
     0
176
     0
 90
       50
176
     0
 62
   256
176
     0
 40
1.0
176
     0
 90
        2
176
     0
  1
strokes_ogs.tif
176
     0
290
     0
176
     0
 40
1.0
176
     0
 40
1.0
176
     0
  0
VISUALSTYLE
  5
39
102
{ACAD_REACTORS
330
2A
102
}
330
2A
100
AcDbVisualStyle
  2
Facepattern
 70
    15
177
     3
291
     1
 70
    58
 90
        2
176
     1
 90
        2
176
     1
 90
        0
176
     1
 90
        0
176
     1
 40
0.6
176
     1
 40
30.0
176
     1
 62
     7
420
 16777215
176
     1
 90
        1
176
     1
 90
        4
176
     1
 62
     7
176
     1
 62
   257
176
     1
 90
        1
176
     1
 90
        1
176
     1
 40
1.0
176
     1
 90
        8
176
     1
 62
     7
176
     1
 40
1.0
176
     1
 90
        1
176
     1
 90
        6
176
     1
 90
        2
176
     1
 62
     7
176
     1
 90
        5
176
     1
 90
        0
176
     1
 90
        0
176
     1
290
     0
176
     1
 90
        1
176
     1
 40
0.0
176
     1
 90
        0
176
     1
290
     0
176
     1
290
     1
176
     1
290
     1
176
     1
290
     0
176
     1
290
     0
176
     1
290
     0
176
     1
290
     0
176
     1
290
     0
176
     1
290
     0
176
     1
 90
       50
176
     1
 40
0.0
176
     1
 40
1.0
176
     1
 90
        0
176
     1
 62
    18
420
        0
176
     1
 90
       50
176
     1
 90
        3
176
     1
 62
     5
420
      255
176
     1
290
     0
176
     1
 90
       50
176
     1
 90
       50
176
     1
 90
       50
176
     1
290
     0
176
     1
 90
       50
176
     1
 62
   256
176
     0
 40
1.0
176
     0
 90
        2
176
     1
  1
strokes_ogs.tif
176
     1
290
     0
176
     1
 40
1.0
176
     1
 40
1.0
176
     1
  0
VISUALSTYLE
  5
2B
102
{ACAD_REACTORS
330
2A
102
}
330
2A
100
AcDbVisualStyle
  2
Flat
 70
     0
177
     3
291
     1
 70
    58
 90
        2
176
     1
 90
        1
176
     1
 90
        1
176
     1
 90
        2
176
     1
 40
0.6
176
     1
 40
30.0
176
     1
 62
     7
420
 16777215
176
     1
 90
        0
176
     1
 90
        0
176
     1
 62
     7
176
     1
 62
   257
176
     1
 90
        1
176
     1
 90
        1
176
     1
 40
1.0
176
     1
 90
        8
176
     1
 62
     7
176
     1
 40
1.0
176
     1
 90
        1
176
     1
 90
        6
176
     1
 90
        2
176
     1
 62
     7
176
     1
 90
        5
176
     1
 90
        0
176
     1
 90
        0
176
     1
290
     0
176
     1
 90
       13
176
     1
 40
0.0
176
     1
 90
        0
176
     1
290
     0
176
     1
290
     1
176
     1
290
     1
176
     1
290
     0
176
     1
290
     0
176
     1
290
     0
176
     1
290
     0
176
     1
290
     0
176
     1
290
     0
176
     1
 90
       50
176
     1
 40
0.0
176
     1
 40
1.0
176
     1
 90
        0
176
     1
 62
    18
420
        0
176
     1
 90
       50
176
     1
 90
        3
176
     1
 62
     5
420
      255
176
     1
290
     0
176
     1
 90
       50
176
     1
 90
       50
176
     1
 90
       50
176
     1
290
     0
176
     1
 90
       50
176
     1
 62
   256
176
     0
 40
1.0
176
     0
 90
        2
176
     1
  1
strokes_ogs.tif
176
     1
290
     0
176
     1
 40
1.0
176
     1
 40
1.0
176
     1
  0
VISUALSTYLE
  5
2C
102
{ACAD_REACTORS
330
2A
102
}
330
2A
100
AcDbVisualStyle
  2
FlatWithEdges
 70
     1
177
     3
291
     1
 70
    58
 90
        2
176
     1
 90
        1
176
     1
 90
        1
176
     1
 90
        2
176
     1
 40
0.6
176
     1
 40
30.0
176
     1
 62
     7
420
 16777215
176
     1
 90
        1
176
     1
 90
        0
176
     1
 62
     7
176
     1
 62
   257
176
     1
 90
        1
176
     1
 90
        1
176
     1
 40
1.0
176
     1
 90
        0
176
     1
 62
   257
176
     1
 40
1.0
176
     1
 90
        1
176
     1
 90
        6
176
     1
 90
        2
176
     1
 62
     7
176
     1
 90
        5
176
     1
 90
        0
176
     1
 90
        0
176
     1
290
     0
176
     1
 90
       13
176
     1
 40
0.0
176
     1
 90
        0
176
     1
290
     0
176
     1
290
     1
176
     1
290
     1
176
     1
290
     0
176
     1
290
     0
176
     1
290
     0
176
     1
290
     0
176
     1
290
     0
176
     1
290
     0
176
     1
 90
       50
176
     1
 40
0.0
176
     1
 40
1.0
176
     1
 90
        0
176
     1
 62
    18
420
        0
176
     1
 90
       50
176
     1
 90
        3
176
     1
 62
     5
420
      255
176
     1
290
     0
176
     1
 90
       50
176
     1
 90
       50
176
     1
 90
       50
176
     1
290
     0
176
     1
 90
       50
176
     1
 62
   256
176
     0
 40
1.0
176
     0
 90
        2
176
     1
  1
strokes_ogs.tif
176
     1
290
     0
176
     1
 40
1.0
176
     1
 40
1.0
176
     1
  0
VISUALSTYLE
  5
2D
102
{ACAD_REACTORS
330
2A
102
}
330
2A
100
AcDbVisualStyle
  2
Gouraud
 70
     2
177
     3
291
     1
 70
    58
 90
        2
176
     1
 90
        2
176
     1
 90
        1
176
     1
 90
        2
176
     1
 40
0.6
176
     1
 40
30.0
176
     1
 62
     7
420
 16777215
176
     1
 90
        0
176
     1
 90
        0
176
     1
 62
     7
176
     1
 62
   257
176
     1
 90
        1
176
     1
 90
        1
176
     1
 40
1.0
176
     1
 90
        0
176
     1
 62
     7
176
     1
 40
1.0
176
     1
 90
        1
176
     1
 90
        6
176
     1
 90
        2
176
     1
 62
     7
176
     1
 90
        5
176
     1
 90
        0
176
     1
 90
        0
176
     1
290
     0
176
     1
 90
       13
176
     1
 40
0.0
176
     1
 90
        0
176
     1
290
     0
176
     1
290
     1
176
     1
290
     1
176
     1
290
     0
176
     1
290
     0
176
     1
290
     0
176
     1
290
     0
176
     1
290
     0
176
     1
290
     0
176
     1
 90
       50
176
     1
 40
0.0
176
     1
 40
1.0
176
     1
 90
        0
176
     1
 62
    18
420
        0
176
     1
 90
       50
176
     1
 90
        3
176
     1
 62
     5
420
      255
176
     1
290
     0
176
     1
 90
       50
176
     1
 90
       50
176
     1
 90
       50
176
     1
290
     0
176
     1
 90
       50
176
     1
 62
   256
176
     0
 40
1.0
176
     0
 90
        2
176
     1
  1
strokes_ogs.tif
176
     1
290
     0
176
     1
 40
1.0
176
     1
 40
1.0
176
     1
  0
VISUALSTYLE
  5
2E
102
{ACAD_REACTORS
330
2A
102
}
330
2A
100
AcDbVisualStyle
  2
GouraudWithEdges
 70
     3
177
     3
291
     1
 70
    58
 90
        2
176
     1
 90
        2
176
     1
 90
        1
176
     1
 90
        2
176
     1
 40
0.6
176
     1
 40
30.0
176
     1
 62
     7
420
 16777215
176
     1
 90
        1
176
     1
 90
        0
176
     1
 62
     7
176
     1
 62
   257
176
     1
 90
        1
176
     1
 90
        1
176
     1
 40
1.0
176
     1
 90
        0
176
     1
 62
   257
176
     1
 40
1.0
176
     1
 90
        1
176
     1
 90
        6
176
     1
 90
        2
176
     1
 62
     7
176
     1
 90
        5
176
     1
 90
        0
176
     1
 90
        0
176
     1
290
     0
176
     1
 90
       13
176
     1
 40
0.0
176
     1
 90
        0
176
     1
290
     0
176
     1
290
     1
176
     1
290
     1
176
     1
290
     0
176
     1
290
     0
176
     1
290
     0
176
     1
290
     0
176
     1
290
     0
176
     1
290
     0
176
     1
 90
       50
176
     1
 40
0.0
176
     1
 40
1.0
176
     1
 90
        0
176
     1
 62
    18
420
        0
176
     1
 90
       50
176
     1
 90
        3
176
     1
 62
     5
420
      255
176
     1
290
     0
176
     1
 90
       50
176
     1
 90
       50
176
     1
 90
       50
176
     1
290
     0
176
     1
 90
       50
176
     1
 62
   256
176
     0
 40
1.0
176
     0
 90
        2
176
     1
  1
strokes_ogs.tif
176
     1
290
     0
176
     1
 40
1.0
176
     1
 40
1.0
176
     1
  0
VISUALSTYLE
  5
31
102
{ACAD_REACTORS
330
2A
102
}
330
2A
100
AcDbVisualStyle
  2
Hidden
 70
     6
177
     3
291
     0
 70
    58
 90
        1
176
     1
 90
        2
176
     1
 90
        2
176
     1
 90
        0
176
     1
 40
0.6
176
     1
 40
30.0
176
     1
 62
     7
420
 16777215
176
     1
 90
        2
176
     1
 90
        2
176
     1
 62
     7
176
     1
 62
   257
176
     1
 90
        2
176
     1
 90
        1
176
     1
 40
40.0
176
     1
 90
        0
176
     1
 62
   257
176
     1
 40
1.0
176
     1
 90
        1
176
     1
 90
        6
176
     1
 90
        2
176
     1
 62
     7
176
     1
 90
        3
176
     1
 90
        0
176
     1
 90
        0
176
     1
290
     0
176
     1
 90
        1
176
     1
 40
0.0
176
     1
 90
        0
176
     1
290
     0
176
     1
290
     1
176
     1
290
     1
176
     1
290
     0
176
     1
290
     0
176
     1
290
     0
176
     1
290
     0
176
     1
290
     0
176
     1
290
     0
176
     1
 90
       50
176
     1
 40
0.0
176
     1
 40
1.0
176
     1
 90
        0
176
     1
 62
    18
420
        0
176
     1
 90
       50
176
     1
 90
        3
176
     1
 62
     5
420
      255
176
     1
290
     0
176
     1
 90
       50
176
     1
 90
       50
176
     1
 90
       50
176
     1
290
     0
176
     1
 90
       50
176
     1
 62
   256
176
     0
 40
1.0
176
     0
 90
        2
176
     1
  1
strokes_ogs.tif
176
     1
290
     0
176
     1
 40
1.0
176
     1
 40
1.0
176
     1
  0
VISUALSTYLE
  5
3B
102
{ACAD_REACTORS
330
2A
102
}
330
2A
100
AcDbVisualStyle
  2
JitterOff
 70
    20
177
     3
291
     1
 70
    58
 90
        2
176
     0
 90
        2
176
     0
 90
        0
176
     0
 90
        0
176
     0
 40
0.6
176
     0
 40
30.0
176
     0
 62
     7
420
 16777215
176
     0
 90
        1
176
     0
 90
        4
176
     0
 62
     7
176
     0
 62
   257
176
     0
 90
        1
176
     0
 90
        1
176
     0
 40
1.0
176
     0
 90
       10
176
     2
 62
     7
176
     0
 40
1.0
176
     0
 90
        1
176
     0
 90
        6
176
     0
 90
        2
176
     0
 62
     7
176
     0
 90
        5
176
     0
 90
        0
176
     0
 90
        0
176
     0
290
     0
176
     0
 90
        1
176
     0
 40
0.0
176
     0
 90
        0
176
     0
290
     0
176
     0
290
     1
176
     0
290
     1
176
     0
290
     0
176
     0
290
     0
176
     0
290
     0
176
     0
290
     0
176
     0
290
     0
176
     0
290
     0
176
     0
 90
       50
176
     0
 40
0.0
176
     0
 40
1.0
176
     0
 90
        0
176
     0
 62
    18
420
        0
176
     0
 90
       50
176
     0
 90
        3
176
     0
 62
     5
420
      255
176
     0
290
     0
176
     0
 90
       50
176
     0
 90
       50
176
     0
 90
       50
176
     0
290
     0
176
     0
 90
       50
176
     0
 62
   256
176
     0
 40
1.0
176
     0
 90
        2
176
     0
  1
strokes_ogs.tif
176
     0
290
     0
176
     0
 40
1.0
176
     0
 40
1.0
176
     0
  0
VISUALSTYLE
  5
38
102
{ACAD_REACTORS
330
2A
102
}
330
2A
100
AcDbVisualStyle
  2
Linepattern
 70
    14
177
     3
291
     1
 70
    58
 90
        2
176
     1
 90
        2
176
     1
 90
        0
176
     1
 90
        0
176
     1
 40
0.6
176
     1
 40
30.0
176
     1
 62
     7
420
 16777215
176
     1
 90
        1
176
     1
 90
        4
176
     1
 62
     7
176
     1
 62
   257
176
     1
 90
        7
176
     1
 90
        7
176
     1
 40
1.0
176
     1
 90
        8
176
     1
 62
     7
176
     1
 40
1.0
176
     1
 90
        1
176
     1
 90
        6
176
     1
 90
        2
176
     1
 62
     7
176
     1
 90
        5
176
     1
 90
        0
176
     1
 90
        0
176
     1
290
     0
176
     1
 90
        1
176
     1
 40
0.0
176
     1
 90
        0
176
     1
290
     0
176
     1
290
     1
176
     1
290
     1
176
     1
290
     0
176
     1
290
     0
176
     1
290
     0
176
     1
290
     0
176
     1
290
     0
176
     1
290
     0
176
     1
 90
       50
176
     1
 40
0.0
176
     1
 40
1.0
176
     1
 90
        0
176
     1
 62
    18
420
        0
176
     1
 90
       50
176
     1
 90
        3
176
     1
 62
     5
420
      255
176
     1
290
     0
176
     1
 90
       50
176
     1
 90
       50
176
     1
 90
       50
176
     1
290
     0
176
     1
 90
       50
176
     1
 62
   256
176
     0
 40
1.0
176
     0
 90
        2
176
     1
  1
strokes_ogs.tif
176
     1
290
     0
176
     1
 40
1.0
176
     1
 40
1.0
176
     1
  0
VISUALSTYLE
  5
3C
102
{ACAD_REACTORS
330
2A
102
}
330
2A
100
AcDbVisualStyle
  2
OverhangOff
 70
    21
177
     3
291
     1
 70
    58
 90
        2
176
     0
 90
        2
176
     0
 90
        0
176
     0
 90
        0
176
     0
 40
0.6
176
     0
 40
30.0
176
     0
 62
     7
420
 16777215
176
     0
 90
        1
176
     0
 90
        4
176
     0
 62
     7
176
     0
 62
   257
176
     0
 90
        1
176
     0
 90
        1
176
     0
 40
1.0
176
     0
 90
        9
176
     2
 62
     7
176
     0
 40
1.0
176
     0
 90
        1
176
     0
 90
        6
176
     0
 90
        2
176
     0
 62
     7
176
     0
 90
        5
176
     0
 90
        0
176
     0
 90
        0
176
     0
290
     0
176
     0
 90
        1
176
     0
 40
0.0
176
     0
 90
        0
176
     0
290
     0
176
     0
290
     1
176
     0
290
     1
176
     0
290
     0
176
     0
290
     0
176
     0
290
     0
176
     0
290
     0
176
     0
290
     0
176
     0
290
     0
176
     0
 90
       50
176
     0
 40
0.0
176
     0
 40
1.0
176
     0
 90
        0
176
     0
 62
    18
420
        0
176
     0
 90
       50
176
     0
 90
        3
176
     0
 62
     5
420
      255
176
     0
290
     0
176
     0
 90
       50
176
     0
 90
       50
176
     0
 90
       50
176
     0
290
     0
176
     0
 90
       50
176
     0
 62
   256
176
     0
 40
1.0
176
     0
 90
        2
176
     0
  1
strokes_ogs.tif
176
     0
290
     0
176
     0
 40
1.0
176
     0
 40
1.0
176
     0
  0
VISUALSTYLE
  5
33
102
{ACAD_REACTORS
330
2A
102
}
330
2A
100
AcDbVisualStyle
  2
Realistic
 70
     8
177
     3
291
     0
 70
    58
 90
        2
176
     1
 90
        3
176
     1
 90
        0
176
     1
 90
        2
176
     1
 40
0.6
176
     1
 40
30.0
176
     1
 62
     7
420
 16777215
176
     1
 90
        0
176
     1
 90
        0
176
     1
 62
     7
176
     1
 62
   257
176
     1
 90
        1
176
     1
 90
        1
176
     1
 40
1.0
176
     1
 90
        8
176
     1
 62
   257
176
     1
 40
1.0
176
     1
 90
        1
176
     1
 90
        6
176
     1
 90
        2
176
     1
 62
     7
176
     1
 90
        3
176
     1
 90
        0
176
     1
 90
        0
176
     1
290
     0
176
     1
 90
       13
176
     1
 40
0.0
176
     1
 90
        0
176
     1
290
     0
176
     1
290
     1
176
     1
290
     1
176
     1
290
     0
176
     1
290
     0
176
     1
290
     0
176
     1
290
     0
176
     1
290
     0
176
     1
290
     0
176
     1
 90
       50
176
     1
 40
0.0
176
     1
 40
1.0
176
     1
 90
        0
176
     1
 62
    18
420
        0
176
     1
 90
       50
176
     1
 90
        3
176
     1
 62
     5
420
      255
176
     1
290
     0
176
     1
 90
       50
176
     1
 90
       50
176
     1
 90
       50
176
     1
290
     0
176
     1
 90
       50
176
     1
 62
   256
176
     0
 40
1.0
176
     0
 90
        2
176
     1
  1
strokes_ogs.tif
176
     1
290
     0
176
     1
 40
1.0
176
     1
 40
1.0
176
     1
  0
VISUALSTYLE
  5
42
102
{ACAD_REACTORS
330
2A
102
}
330
2A
100
AcDbVisualStyle
  2
Shaded
 70
    27
177
     3
291
     0
 70
    58
 90
        2
176
     1
 90
        2
176
     1
 90
        1
176
     1
 90
        2
176
     1
 40
0.6
176
     1
 40
30.0
176
     1
 62
     7
420
 16777215
176
     1
 90
        0
176
     1
 90
        4
176
     1
 62
     7
176
     1
 62
   257
176
     1
 90
        1
176
     1
 90
        1
176
     1
 40
1.0
176
     1
 90
        8
176
     1
 62
   257
176
     1
 40
1.0
176
     1
 90
        1
176
     1
 90
        6
176
     1
 90
        2
176
     1
 62
     8
420
  7895160
176
     1
 90
        3
176
     1
 90
        0
176
     1
 90
        0
176
     1
290
     0
176
     1
 90
        5
176
     1
 40
0.0
176
     1
 90
        0
176
     1
290
     0
176
     1
290
     1
176
     1
290
     1
176
     1
290
     0
176
     1
290
     0
176
     1
290
     0
176
     1
290
     0
176
     1
290
     0
176
     1
290
     0
176
     1
 90
       50
176
     1
 40
0.0
176
     1
 40
1.0
176
     1
 90
        0
176
     1
 62
    18
420
        0
176
     1
 90
       50
176
     1
 90
        3
176
     1
 62
     5
420
      255
176
     1
290
     0
176
     1
 90
       50
176
     1
 90
       50
176
     1
 90
       50
176
     1
290
     0
176
     1
 90
       50
176
     1
 62
   256
176
     0
 40
1.0
176
     0
 90
        2
176
     1
  1
strokes_ogs.tif
176
     1
290
     0
176
     1
 40
1.0
176
     1
 40
1.0
176
     1
  0
VISUALSTYLE
  5
41
102
{ACAD_REACTORS
330
2A
102
}
330
2A
100
AcDbVisualStyle
  2
Shaded with edges
 70
    26
177
     3
291
     0
 70
    58
 90
        2
176
     1
 90
        2
176
     1
 90
        1
176
     1
 90
        2
176
     1
 40
0.6
176
     1
 40
30.0
176
     1
 62
     7
420
 16777215
176
     1
 90
        1
176
     1
 90
       10
176
     1
 62
     7
176
     1
 62
   257
176
     1
 90
        2
176
     1
 90
        1
176
     1
 40
1.0
176
     1
 90
        8
176
     1
 62
   257
176
     1
 40
1.0
176
     1
 90
        1
176
     1
 90
        6
176
     1
 90
        2
176
     1
 62
     7
176
     1
 90
        3
176
     1
 90
        0
176
     1
 90
        0
176
     1
290
     0
176
     1
 90
        5
176
     1
 40
0.0
176
     1
 90
        0
176
     1
290
     0
176
     1
290
     1
176
     1
290
     1
176
     1
290
     0
176
     1
290
     0
176
     1
290
     0
176
     1
290
     0
176
     1
290
     0
176
     1
290
     0
176
     1
 90
       50
176
     1
 40
0.0
176
     1
 40
1.0
176
     1
 90
        0
176
     1
 62
    18
420
        0
176
     1
 90
       50
176
     1
 90
        3
176
     1
 62
     5
420
      255
176
     1
290
     0
176
     1
 90
       50
176
     1
 90
       50
176
     1
 90
       50
176
     1
290
     0
176
     1
 90
       50
176
     1
 62
   256
176
     0
 40
1.0
176
     0
 90
        2
176
     1
  1
strokes_ogs.tif
176
     1
290
     0
176
     1
 40
1.0
176
     1
 40
1.0
176
     1
  0
VISUALSTYLE
  5
3E
102
{ACAD_REACTORS
330
2A
102
}
330
2A
100
AcDbVisualStyle
  2
Shades of Gray
 70
    23
177
     3
291
     0
 70
    58
 90
        2
176
     1
 90
        2
176
     1
 90
        3
176
     1
 90
        0
176
     1
 40
0.6
176
     1
 40
30.0
176
     1
 62
     7
420
 16777215
176
     1
 90
        2
176
     1
 90
        2
176
     1
 62
     7
176
     1
 62
     7
176
     1
 90
        1
176
     1
 90
        1
176
     1
 40
40.0
176
     1
 90
        8
176
     1
 62
     7
176
     1
 40
1.0
176
     1
 90
        1
176
     1
 90
        6
176
     1
 90
        2
176
     1
 62
     7
176
     1
 90
        3
176
     1
 90
        0
176
     1
 90
        0
176
     1
290
     0
176
     1
 90
        1
176
     1
 40
0.0
176
     1
 90
        0
176
     1
290
     0
176
     1
290
     1
176
     1
290
     1
176
     1
290
     0
176
     1
290
     0
176
     1
290
     0
176
     1
290
     0
176
     1
290
     0
176
     1
290
     0
176
     1
 90
       50
176
     1
 40
0.0
176
     1
 40
1.0
176
     1
 90
        0
176
     1
 62
    18
420
        0
176
     1
 90
       50
176
     1
 90
        3
176
     1
 62
     5
420
      255
176
     1
290
     0
176
     1
 90
       50
176
     1
 90
       50
176
     1
 90
       50
176
     1
290
     0
176
     1
 90
       50
176
     1
 62
   256
176
     0
 40
1.0
176
     0
 90
        2
176
     1
  1
strokes_ogs.tif
176
     1
290
     0
176
     1
 40
1.0
176
     1
 40
1.0
176
     1
  0
VISUALSTYLE
  5
3F
102
{ACAD_REACTORS
330
2A
102
}
330
2A
100
AcDbVisualStyle
  2
Sketchy
 70
    24
177
     3
291
     0
 70
    58
 90
        1
176
     1
 90
        2
176
     1
 90
        2
176
     1
 90
        0
176
     1
 40
0.6
176
     1
 40
30.0
176
     1
 62
     7
420
 16777215
176
     1
 90
        2
176
     1
 90
        2
176
     1
 62
     7
176
     1
 62
     7
176
     1
 90
        1
176
     1
 90
        1
176
     1
 40
40.0
176
     1
 90
       11
176
     1
 62
     7
176
     1
 40
1.0
176
     1
 90
        1
176
     1
 90
        6
176
     1
 90
        2
176
     1
 62
     7
176
     1
 90
        6
176
     1
 90
        0
176
     1
 90
        0
176
     1
290
     0
176
     1
 90
        1
176
     1
 40
0.0
176
     1
 90
        0
176
     1
290
     0
176
     1
290
     1
176
     1
290
     1
176
     1
290
     0
176
     1
290
     0
176
     1
290
     0
176
     1
290
     0
176
     1
290
     0
176
     1
290
     0
176
     1
 90
       50
176
     1
 40
0.0
176
     1
 40
1.0
176
     1
 90
        0
176
     1
 62
    18
420
        0
176
     1
 90
       50
176
     1
 90
        3
176
     1
 62
     5
420
      255
176
     1
290
     0
176
     1
 90
       50
176
     1
 90
       50
176
     1
 90
       50
176
     1
290
     0
176
     1
 90
       50
176
     1
 62
   256
176
     0
 40
1.0
176
     0
 90
        2
176
     1
  1
strokes_ogs.tif
176
     1
290
     0
176
     1
 40
1.0
176
     1
 40
1.0
176
     1
  0
VISUALSTYLE
  5
37
102
{ACAD_REACTORS
330
2A
102
}
330
2A
100
AcDbVisualStyle
  2
Thicken
 70
    13
177
     3
291
     1
 70
    58
 90
        2
176
     1
 90
        2
176
     1
 90
        0
176
     1
 90
        0
176
     1
 40
0.6
176
     1
 40
30.0
176
     1
 62
     7
420
 16777215
176
     1
 90
        1
176
     1
 90
        4
176
     1
 62
     7
176
     1
 62
   257
176
     1
 90
        1
176
     1
 90
        1
176
     1
 40
1.0
176
     1
 90
       12
176
     1
 62
     7
176
     1
 40
1.0
176
     1
 90
        1
176
     1
 90
        6
176
     1
 90
        2
176
     1
 62
     7
176
     1
 90
        5
176
     1
 90
        0
176
     1
 90
        0
176
     1
290
     0
176
     1
 90
        1
176
     1
 40
0.0
176
     1
 90
        0
176
     1
290
     0
176
     1
290
     1
176
     1
290
     1
176
     1
290
     0
176
     1
290
     0
176
     1
290
     0
176
     1
290
     0
176
     1
290
     0
176
     1
290
     0
176
     1
 90
       50
176
     1
 40
0.0
176
     1
 40
1.0
176
     1
 90
        0
176
     1
 62
    18
420
        0
176
     1
 90
       50
176
     1
 90
        3
176
     1
 62
     5
420
      255
176
     1
290
     0
176
     1
 90
       50
176
     1
 90
       50
176
     1
 90
       50
176
     1
290
     0
176
     1
 90
       50
176
     1
 62
   256
176
     0
 40
1.0
176
     0
 90
        2
176
     1
  1
strokes_ogs.tif
176
     1
290
     0
176
     1
 40
1.0
176
     1
 40
1.0
176
     1
  0
VISUALSTYLE
  5
30
102
{ACAD_REACTORS
330
2A
102
}
330
2A
100
AcDbVisualStyle
  2
Wireframe
 70
     5
177
     3
291
     0
 70
    58
 90
        0
176
     1
 90
        2
176
     1
 90
        0
176
     1
 90
        0
176
     1
 40
0.6
176
     1
 40
30.0
176
     1
 62
     7
420
 16777215
176
     1
 90
        1
176
     1
 90
        4
176
     1
 62
     7
176
     1
 62
   257
176
     1
 90
        1
176
     1
 90
        1
176
     1
 40
1.0
176
     1
 90
        0
176
     1
 62
   257
176
     1
 40
1.0
176
     1
 90
        1
176
     1
 90
        6
176
     1
 90
        2
176
     1
 62
     7
176
     1
 90
        3
176
     1
 90
        0
176
     1
 90
        0
176
     1
290
     0
176
     1
 90
        1
176
     1
 40
0.0
176
     1
 90
        0
176
     1
290
     0
176
     1
290
     1
176
     1
290
     1
176
     1
290
     0
176
     1
290
     0
176
     1
290
     0
176
     1
290
     0
176
     1
290
     0
176
     1
290
     0
176
     1
 90
       50
176
     1
 40
0.0
176
     1
 40
1.0
176
     1
 90
        0
176
     1
 62
    18
420
        0
176
     1
 90
       50
176
     1
 90
        3
176
     1
 62
     5
420
      255
176
     1
290
     0
176
     1
 90
       50
176
     1
 90
       50
176
     1
 90
       50
176
     1
290
     0
176
     1
 90
       50
176
     1
 62
   256
176
     0
 40
1.0
176
     0
 90
        2
176
     1
  1
strokes_ogs.tif
176
     1
290
     0
176
     1
 40
1.0
176
     1
 40
1.0
176
     1
  0
VISUALSTYLE
  5
40
102
{ACAD_REACTORS
330
2A
102
}
330
2A
100
AcDbVisualStyle
  2
X-Ray
 70
    25
177
     3
291
     0
 70
    58
 90
        2
176
     1
 90
        2
176
     1
 90
        1
176
     1
 90
        1
176
     1
 40
0.5
176
     1
 40
30.0
176
     1
 62
     7
420
 16777215
176
     1
 90
        1
176
     1
 90
        0
176
     1
 62
     7
176
     1
 62
   257
176
     1
 90
        1
176
     1
 90
        1
176
     1
 40
1.0
176
     1
 90
        8
176
     1
 62
     7
176
     1
 40
1.0
176
     1
 90
        1
176
     1
 90
        6
176
     1
 90
        2
176
     1
 62
     7
176
     1
 90
        3
176
     1
 90
        0
176
     1
 90
        0
176
     1
290
     0
176
     1
 90
       13
176
     1
 40
0.0
176
     1
 90
        0
176
     1
290
     0
176
     1
290
     1
176
     1
290
     1
176
     1
290
     0
176
     1
290
     0
176
     1
290
     0
176
     1
290
     0
176
     1
290
     0
176
     1
290
     0
176
     1
 90
       50
176
     1
 40
0.0
176
     1
 40
1.0
176
     1
 90
        0
176
     1
 62
    18
420
        0
176
     1
 90
       50
176
     1
 90
        3
176
     1
 62
     5
420
      255
176
     1
290
     0
176
     1
 90
       50
176
     1
 90
       50
176
     1
 90
       50
176
     1
290
     0
176
     1
 90
       50
176
     1
 62
   256
176
     0
 40
1.0
176
     0
 90
        2
176
     1
  1
strokes_ogs.tif
176
     1
290
     0
176
     1
 40
1.0
176
     1
 40
1.0
176
     1
  0
DICTIONARYVAR
  5
3D4
102
{ACAD_REACTORS
330
3D3
102
}
330
3D3
100
DictionaryVariables
280
     0
  1
1:1
  0
DICTIONARYVAR
  5
3D9
102
{ACAD_REACTORS
330
3D3
102
}
330
3D3
100
DictionaryVariables
280
     0
  1
Standard
  0
DICTIONARYVAR
  5
3D8
102
{ACAD_REACTORS
330
3D3
102
}
330
3D3
100
DictionaryVariables
280
     0
  1
Standard
  0
DICTIONARYVAR
  5
3DC
102
{ACAD_REACTORS
330
3D3
102
}
330
3D3
100
DictionaryVariables
280
     0
  1
6.000000
  0
DICTIONARY
  5
3D5
330
6A
100
AcDbDictionary
280
     1
281
     1
  3
ACAD_ROUNDTRIP_2008_TABLESTYLE_CELLSTYLEMAP
360
3D6
  0
CELLSTYLEMAP
  5
3D6
102
{ACAD_REACTORS
330
3D5
102
}
330
3D5
100
AcDbCellStyleMap
 90
        3
300
CELLSTYLE
  1
TABLEFORMAT_BEGIN
 90
        5
170
     1
 91
        0
 92
    32768
 62
   257
 93
        1
300
CONTENTFORMAT
  1
CONTENTFORMAT_BEGIN
 90
        0
 91
        0
 92
        4
 93
        0
300

 40
0.0
140
1.0
 94
        5
 62
     0
340
11
144
6.0
309
CONTENTFORMAT_END
171
     1
301
MARGIN
  1
CELLMARGIN_BEGIN
 40
1.5
 40
1.5
 40
1.5
 40
1.5
 40
1.5
 40
1.5
309
CELLMARGIN_END
 94
        6
 95
        1
302
GRIDFORMAT
  1
GRIDFORMAT_BEGIN
 90
        0
 91
        1
 62
     0
 92
       -2
340
14
 93
        0
 40
0.045
309
GRIDFORMAT_END
 95
        2
302
GRIDFORMAT
  1
GRIDFORMAT_BEGIN
 90
        0
 91
        1
 62
     0
 92
       -2
340
14
 93
        0
 40
0.045
309
GRIDFORMAT_END
 95
        4
302
GRIDFORMAT
  1
GRIDFORMAT_BEGIN
 90
        0
 91
        1
 62
     0
 92
       -2
340
14
 93
        0
 40
0.045
309
GRIDFORMAT_END
 95
        8
302
GRIDFORMAT
  1
GRIDFORMAT_BEGIN
 90
        0
 91
        1
 62
     0
 92
       -2
340
14
 93
        0
 40
0.045
309
GRIDFORMAT_END
 95
       16
302
GRIDFORMAT
  1
GRIDFORMAT_BEGIN
 90
        0
 91
        1
 62
     0
 92
       -2
340
14
 93
        0
 40
0.045
309
GRIDFORMAT_END
 95
       32
302
GRIDFORMAT
  1
GRIDFORMAT_BEGIN
 90
        0
 91
        1
 62
     0
 92
       -2
340
14
 93
        0
 40
0.045
309
GRIDFORMAT_END
309
TABLEFORMAT_END
  1
CELLSTYLE_BEGIN
 90
        1
 91
        1
300
_TITLE
309
CELLSTYLE_END
300
CELLSTYLE
  1
TABLEFORMAT_BEGIN
 90
        5
170
     1
 91
        0
 92
        0
 62
   257
 93
        1
300
CONTENTFORMAT
  1
CONTENTFORMAT_BEGIN
 90
        0
 91
        0
 92
        4
 93
        0
300

 40
0.0
140
1.0
 94
        5
 62
     0
340
11
144
4.5
309
CONTENTFORMAT_END
171
     1
301
MARGIN
  1
CELLMARGIN_BEGIN
 40
1.5
 40
1.5
 40
1.5
 40
1.5
 40
1.5
 40
1.5
309
CELLMARGIN_END
 94
        6
 95
        1
302
GRIDFORMAT
  1
GRIDFORMAT_BEGIN
 90
        0
 91
        1
 62
     0
 92
       -2
340
14
 93
        0
 40
0.045
309
GRIDFORMAT_END
 95
        2
302
GRIDFORMAT
  1
GRIDFORMAT_BEGIN
 90
        0
 91
        1
 62
     0
 92
       -2
340
14
 93
        0
 40
0.045
309
GRIDFORMAT_END
 95
        4
302
GRIDFORMAT
  1
GRIDFORMAT_BEGIN
 90
        0
 91
        1
 62
     0
 92
       -2
340
14
 93
        0
 40
0.045
309
GRIDFORMAT_END
 95
        8
302
GRIDFORMAT
  1
GRIDFORMAT_BEGIN
 90
        0
 91
        1
 62
     0
 92
       -2
340
14
 93
        0
 40
0.045
309
GRIDFORMAT_END
 95
       16
302
GRIDFORMAT
  1
GRIDFORMAT_BEGIN
 90
        0
 91
        1
 62
     0
 92
       -2
340
14
 93
        0
 40
0.045
309
GRIDFORMAT_END
 95
       32
302
GRIDFORMAT
  1
GRIDFORMAT_BEGIN
 90
        0
 91
        1
 62
     0
 92
       -2
340
14
 93
        0
 40
0.045
309
GRIDFORMAT_END
309
TABLEFORMAT_END
  1
CELLSTYLE_BEGIN
 90
        2
 91
        1
300
_HEADER
309
CELLSTYLE_END
300
CELLSTYLE
  1
TABLEFORMAT_BEGIN
 90
        5
170
     1
 91
        0
 92
        0
 62
   257
 93
        1
300
CONTENTFORMAT
  1
CONTENTFORMAT_BEGIN
 90
        0
 91
        0
 92
        4
 93
        0
300

 40
0.0
140
1.0
 94
        2
 62
     0
340
11
144
4.5
309
CONTENTFORMAT_END
171
     1
301
MARGIN
  1
CELLMARGIN_BEGIN
 40
1.5
 40
1.5
 40
1.5
 40
1.5
 40
1.5
 40
1.5
309
CELLMARGIN_END
 94
        6
 95
        1
302
GRIDFORMAT
  1
GRIDFORMAT_BEGIN
 90
        0
 91
        1
 62
     0
 92
       -2
340
14
 93
        0
 40
0.045
309
GRIDFORMAT_END
 95
        2
302
GRIDFORMAT
  1
GRIDFORMAT_BEGIN
 90
        0
 91
        1
 62
     0
 92
       -2
340
14
 93
        0
 40
0.045
309
GRIDFORMAT_END
 95
        4
302
GRIDFORMAT
  1
GRIDFORMAT_BEGIN
 90
        0
 91
        1
 62
     0
 92
       -2
340
14
 93
        0
 40
0.045
309
GRIDFORMAT_END
 95
        8
302
GRIDFORMAT
  1
GRIDFORMAT_BEGIN
 90
        0
 91
        1
 62
     0
 92
       -2
340
14
 93
        0
 40
0.045
309
GRIDFORMAT_END
 95
       16
302
GRIDFORMAT
  1
GRIDFORMAT_BEGIN
 90
        0
 91
        1
 62
     0
 92
       -2
340
14
 93
        0
 40
0.045
309
GRIDFORMAT_END
 95
       32
302
GRIDFORMAT
  1
GRIDFORMAT_BEGIN
 90
        0
 91
        1
 62
     0
 92
       -2
340
14
 93
        0
 40
0.045
309
GRIDFORMAT_END
309
TABLEFORMAT_END
  1
CELLSTYLE_BEGIN
 90
        3
 91
        2
300
_DATA
309
CELLSTYLE_END
  0
ENDSEC
  0
EOF
